» » »

Static - X - Bled For Days Tabs

Artists:  A B C D E F G H I J K L M N O P Q R S T U V W X Y Z # 

Bled For Days Tabs

(ver. 1) Click to play this song!
Static - X
 Rating:
4/5 (4 votes)

 Bled For Days lessons Tabs too difficult? Try these video lessons and learn fast
 
                this is how i play this damn great static-x song.any comments, corrections, suggestions
are welcome.i use the ZOOM 505-II effects processor and set it up so that my guitar 
sounds more or less like this great band.my zoom patch for this song has these parameters:
COMP  :  C9
DIST  :  Mt
GAIN  :  30
EQ    :  30
CONT  :  0
ZNR   :  9
MOD   :  of
DELAY :  of
TIME  :  --

for my amp setting, i crank the bass and treble all the way up, and the mid at 5.
NOTE: the second part of the verses is, i think, played by two guitars played alternately.
      but our band has only 1 guitarist (me!) so i just play the other guitar's part with 
      an upstroke to somehow simulate the effect.


Tuning: C-G-C-F-A-D

Legend:
R  : rest 
h  : hammer on
u  : upstroke
PM : palm muting 
T  : tremolo picking

INTRO:

|-------------------|
|-------------------|
|-------------------|
|--------R----------|
|-------------------|
|-------------------|


w/ dist.
  PM........................................................................|
|------------------------------------------------------------------------------|
|------------------------------------------------------------------------------|
|------------------------------------------------------------------------------|
|------------------------------------------------------------------------------|
|--0h2-0h2-0h2--0h2---0h2-0h2-0h2--0h2---0h2-0h2-0h2--0h2---0h2-0h2-0h2--0h2---|
|--0h2-0h2-0h2--0h2---0h2-0h2-0h2--0h2---0h2-0h2-0h2--0h2---0h2-0h2-0h2--0h2---|


|------------------------------------------|
|------------------------------------------|
|------------------------------------------|
|--3-0-3-0---3-0-3-0---3-0-3-0---3-0-3-0---|
|--3-0-3-0---3-0-3-0---3-0-3-0---3-0-3-0---|
|--3-0-3-0---3-0-3-0---3-0-3-0---3-0-3-0---|


1st VERSE:
			   u       u       u
|-------------------|----------------------------|
|-------------------|----------------------------|
|-------------------|----------------------------|
|-------R-----------|-2----3--2----3--2----3--2--|
|-------------------|-2----3--2----3--2----3--2--|
|-------------------|-2-------2-------2-------2--|
Meaningless....       Take the hold...


|-------------------|
|-------------------|
|-------------------|
|--------R----------|
|-------------------|
|-------------------|


2nd VERSE:
			    u       u       u
|--------------------|----------------------------|
|--------------------|----------------------------|
|--------------------|----------------------------|
|--2----2----2----2--|-2----3--2----3--2----3--2--|
|--2----2----2----2--|-2----3--2----3--2----3--2--|
|--2----2----2----2--|-2-------2-------2-------2--|
Mindlessness...        Bled for days...


PRE-CHORUS:

|------------------------------------------|
|------------------------------------------|
|------------------------------------------|
|--3-0----3-0----3-0----3-0----------------|
|--3-0----3-0----3-0----3-0----------------|
|--3-0----3-0----3-0----3-0----------------|
Get to the race...


CHORUS:
   T     T 
|-----|-----|
|-----|-----| 
|--9--|--10-|   (Repeat)
|-----|-----|
|--7--|--8--|
|-----|-----|


that's about all the riff for this song.just listen to the cd for the order
and the timing.
            
Submit corrections


        Bled For Days lessons Hard to play? Try these video lessons and learn fast Bled For Days lessons
        
↑ Back to top | Tablatures and chords for acoustic guitar and electric guitar, ukulele, drums are parodies/interpretations of the original songs. You may use it for private study, scholarship, research or language learning purposes only