Home » S » Star Wars »

Star Wars - Imperial March Tabs

Artists:  A B C D E F G H I J K L M N O P Q R S T U V W X Y Z # 

Imperial March Tabs

(ver. 1) Click to play this song!
Star Wars

---------6------6-----10-10-10-11-----------6-----15--------15-14-13-12\11----
-8-8-8-----8------8---------------11-----------8------12-12-------------------
-------8-----8-----------------------11--8------------------------------------
                                                                              

-12----9-8-7-6\5-6------------6-----6--10-15--------15-14-13-12-11-12----9-8--
-----9-----------------7----7---8-------------12-12--------------------9------
---------------------8---8----------------------------------------------------
                                                                              

-7-6\5-6-------------6------6-------------------------------------------------
--------------7--------8------8-----------------------------------------------
-----------8------8------8----------------------------------------------------
            
Submit corrections

↑ Back to top | Tablatures and chords for acoustic guitar and electric guitar, ukulele, drums are parodies/interpretations of the original songs. You may use it for private study, scholarship, research or language learning purposes only