Home » S » Star Wars »

Star Wars - The Throne Room Tabs

Artists:  A B C D E F G H I J K L M N O P Q R S T U V W X Y Z # 

The Throne Room Tabs

(ver. 1) Click to play this song!
Star Wars

----0------2------3/5-3----------------0-----2--3-----------7-7---------------
-0--0------0----------5-----0----0--0--0-----------5--8-------8-----------0---
-2--0------0----------4-----0----2-----0-----------------9----9-----------2---
-1--------------------------2----1----------------------------------------1---
-2-------------------------------2------------------------------0-0-0---0-2---
--------0-----0----------0-----0----------0-----------------------------------
                                                                              

---0------2--3---------7--------12--------------------7------------------0----
-0-0---------0------5--8---------8--------5---8-7--5--8----8---0---0---0-0----
---0---------0---------9-----9---9--------5---5-------9------9-2---2-----0----
--------------------------------10--------5---5----------------1---1----------
------0---------0---------0----------8----8---8----------0--------------------
                                                                              

---------------0--------------------------------------------------------------
-------0---0---0--------------------------------------------------------------
----2--2-------0--------------------------------------------------------------
----2--1----------------------------------------------------------------------
----2--2----------------------------------------------------------------------
-0-----------------0----------------------------------------------------------
            
Submit corrections

↑ Back to top | Tablatures and chords for acoustic guitar and electric guitar, ukulele, drums are parodies/interpretations of the original songs. You may use it for private study, scholarship, research or language learning purposes only