Home » S » Starland Vocal Band »

Starland Vocal Band - Afternoon Delight Tabs

Artists:  A B C D E F G H I J K L M N O P Q R S T U V W X Y Z # 

Afternoon Delight Tabs

(ver. 3) Click to play this song!
Starland Vocal Band
(Intro)
e--2-2-2--------0-------3-------2-----------------I
b--3-3-2--3-------3-------3-------3---------------I
g--2-2-2----2-------2-------2-------2-------------I
d--0-0-0------0-------0-------0-------0-----------I
a-------------------------------------------------I
e-------------------------------------------------I

e--3-3-3--------0-------0-------0-----------------I
b--3-3-3--3-------3-------3-------3---------------I
g--0-0-0----0-------0-------0-------0-------------I
d--0-0-0------0-------0-------0-------0-----------I
a--2-2-2------------------------------------------I
e-------------------------------------------------I

repeat thats not good but its better than the other tabs u hav for it
            
Submit corrections

↑ Back to top | Tablatures and chords for acoustic guitar and electric guitar, ukulele, drums are parodies/interpretations of the original songs. You may use it for private study, scholarship, research or language learning purposes only