» » »

Starfield - Hosanna Tabs

Artists:  A B C D E F G H I J K L M N O P Q R S T U V W X Y Z # 

Hosanna Tabs

(ver. 2) Click to play this song!
Starfield
 Rating:
4.2/5 (5 votes)

 Hosanna lessons Tabs too difficult? Try these video lessons and learn fast
 
                -----------------------------------------------------------------------------
                          Hosanna - Starfield
-----------------------------------------------------------------------------
Tuning: standard

  Play this harmonic for the very beginning of the song:

  Intro part 1
e|--<7>-<7>--<7>-<7>-<7>---<7>-<7>-<7>-<7>-<7>-<7>-|
B|-------------------------------------------------|
G|-------------------------------------------------|
D|-------------------------------------------------|
A|-------------------------------------------------|
E|-------------------------------------------------|

Then:
  These are actually 16th notes, you’re gonna play them more than the
number I wrote out; listen to the song to get it right

 Intro part 2
e|-----------------------------------------------|
B|-3/5-5-5-5/3-3-3-3/0-0-3/5-5-5-5/3-3-3/8-8-8/7-|
G|-----------------------------------------------|
D|-----------------------------------------------|
A|-----------------------------------------------|
E|-----------------------------------------------|
Play these chords under part 2 (actually done on keyboard)
     Em            G           Am           Bm

 Intro part 3
e|-----10---12------------------10---12------------|
B|--12----------12-10--12----12----------12-10--12-|
G|-------------------------------------------------|
D|-------------------------------------------------|
A|-------------------------------------------------|
E|-------------------------------------------------|

 Play these chords under intro part 3
     Em            G           Am           Bm
e|-------------------------------------------------|
B|-------------------------------------------------|
G|-------------------------------------------------|
D|----2------------5------------7-----------9------|
A|----2------------5------------7-----------9------|
E|----0------------3------------5-----------7------|

VERSE 1:
G                       G D/F#  
I see the King of Glory
Em
Coming on the clouds with fire
                Am
The whole earth shakes
                D
The whole earth shakes
G                        G D/F#
I see His love and mercy
Em
Washing over all our sin
           Am
The people sing
           D
The people sing

CHORUS:
G     C   D  Em
Hosanna, Hosanna
     C           Em  D
Hosanna in the highest
G     C   D  Em
Hosanna, Hosanna
   C            D  Em
Hosanna in the highest

G                 G D/F#
I see a generation
Em
Rising up to take their place
               Am              D
With selfless faith, selfless faith
G                  G D/F#
I see a near revival
Em
Stirring as we pray and seek
             Am            D
We're on our knees, on our knees

CHORUS

BRIDGE:

This is the break that leads to the bridge
 Play these chords under it:

   Em               G
e|---3--3--3--3--3---7--7--7--7--7--|
B|-5--5--5--5--5---8--8--8--8--8----|
G|----------------------------------|
D|----------------------------------|
A|----------------------------------|
E|----------------------------------|

   Am                    Bm
e|----8---8---8---8---8--10--10--10--14-14-14h15p14--|
B|-10--10--10--10--10--12--12--12--------------------|
G|---------------------------------------------------|
D|---------------------------------------------------|
A|---------------------------------------------------|
E|---------------------------------------------------|

C                          D
Heal my heart and make it clean
 G               Em
Open up eyes to things unseen
C                        D
Show me how to love like You
    Em
And love me


G     C   D  Em
Hosanna, Hosanna
     C           Em  D
Hosanna in the highest
G     C   D  Em
Hosanna, Hosanna
   C            D  G
Hosanna in the highest


G     C   D  Em
Hosanna, Hosanna
     G           Em  D
Hosanna in the highest
G     C   D  Em
Hosanna, Hosanna
   C            D  Em    
Hosanna in the highest

  C             D  
Hosanna in the highest

OUTRO:

e|-10------10-------10---10------10------10-------|  repeat for
B|----10-8----10-8-----8----10-8----10-8----8-----|  the rest of
G|------------------------------------------------|  the song
D|------------------------------------------------|
A|------------------------------------------------|
E|------------------------------------------------|

  And play these chords under it to finish out the song!

   G   Em   C   G

NOTE: During the first line of the verses when you do the G F#m Em walk down, it’s 
like this the first time:

   G  F#m    Em
e|-7----5----3---|
B|-8----7----5---|
G|-7----6----4---|
D|---------------|
A|---------------|
E|---------------|


Enjoy!!
            
Submit corrections


        Hosanna lessons Hard to play? Try these video lessons and learn fast Hosanna lessons
        
↑ Back to top | Tablatures and chords for acoustic guitar and electric guitar, ukulele, drums are parodies/interpretations of the original songs. You may use it for private study, scholarship, research or language learning purposes only