Home » S » Starfield »

Starfield - Reign In Us Tabs

Artists:  A B C D E F G H I J K L M N O P Q R S T U V W X Y Z # 

Reign In Us Tabs

(ver. 1) Click to play this song!
Starfield
 Rating:
4/5 (4 votes)
                STARFIELD - Reign in us

Hi, this is an amazing song by the Godsend band "Starfield", the chords were my own 
in to keep it all together in one big spread, Enjoy playing this as much as i do !! <3 God bless

-Chord List-
Am   | 01020x
Csus | 01033x
Dm   | 13200x
F    | 01233x
G    | 300023


Intro Riff
-------------------------------------------------------|
---13----13----12----12----13----13----15----15--------|
------12----12----12----12----12----12----12----12-----|
-------------------------------------------------------|
-------------------------------------------------------|
-------------------------------------------------------|


Verse 1
     Am7                            F
You thought of us before the world began to breathe...
     G                              Csus
You knew our names before we came to be...
     Am7                         F
You saw the very day we'd fall away from You
         G                      Csus
And how desperately we need to be redeemed


Verse 1 (Guitar 2)
Solo Pluck each note (repeatedly) to match the beat.
-----------15-12-----------------------|
----15-13-------------15-13-13-12---10-|
-12---------------12-------------------|
---------------------------------------|
---------------------------------------|
---------------------------------------|


-Pre-Chorus-
       F          G
Lord Jesus come lead us
        Dm       Csus    G
We're desperate for your touch


-Chorus-
Csus                     G
Oh Great and Mighty One, with one desire we come
Dm    Csus     F                      G
That You would reign, that You would reign in us
Csus                         G
We're offering up our lives, a living sacrifice
Dm    Csus     F                      G
That you would reign, that you would reign in us


Chorus (Guitar 2)
Solo Pluck each note (repeatedly) to match the beat.
----15--------------|
-13----13-13-13-12--|
--------------------|
--------------------|
--------------------|
--------------------|


-Verse 2-
  Am7                           F
Spirit of the living God fall fresh again
      G                     Csus
Come search our hearts and purify our lives
    Am7                                  F
We need your perfect love, we need your discipline
       G                         Csus
We're lost unless you guide us with.. Your light

Then go to...

Pre-Chorus
Chorus


-Bridge 1-
    G                F         Csus      G
We cry out for Your life to revive us, cry out
          F       Csus      G
For Your love to defy us, cry out
          F        Csus    Am7                G
For Your mercy to keep us blameless until You return


Bridge 1(Guitar 2)
-20-19-------------------------------------------|
-------20----------------18----18----17----17----|
----------19-19-19----17----17----17----17----17-|
-------------------------------------------------|
-------------------------------------------------|
-------------------------------------------------|

-20-19-------------------------------------------|
-------20--------------18----18----20----20------|
----------19-19-19--17----17----17----17----17---|
-------------------------------------------------|
-------------------------------------------------|
-------------------------------------------------|

-20-19-------------------------------------------|
-------20----------------18----18----20----20----|
----------19-19-19----17----17----17----17----17-|
-------------------------------------------------|
-------------------------------------------------|
-------------------------------------------------|

-19-20-------------------19-20-------------------|
-------20-------------20-------20----------------|
----------19-19-19-19-------------19-19-19----17-|
-------------------------------------------------|
-------------------------------------------------|
-------------------------------------------------|

Chorus x2


-Bridge 2-
  F              Csus     G
So, reign please reign in us
                  F         Csus     G
Come purify our hearts, we need Your touch
                        F         Csus   G
Come cleanse us like a flood and send us out
                          F          Csus    G
So the world may know you reign, you reign in us

Bridge 2 (Guitar 2)
------------77777777-----------------------|
----------------------88888888--15-(hold)--|
--55555555---------------------------------|
-------------------------------------------|
-------------------------------------------|
-------------------------------------------|


Bridge 2 x3

(End)


Intro, Verse1, Chorus & Bridge 1 Tabs added from guitarpraise.
            
Submit corrections

↑ Back to top | Tablatures and chords for acoustic guitar and electric guitar, ukulele, drums are parodies/interpretations of the original songs. You may use it for private study, scholarship, research or language learning purposes only