Home » S » Stampeders »

Stampeders - Ramona Tabs

Artists:  A B C D E F G H I J K L M N O P Q R S T U V W X Y Z # 

Ramona Tabs

(ver. 2) Click to play this song!
Stampeders
The Stampeders
Ramona

Hey! this is chris. its basically my first tab that i've submitted, so watever.
its from a canadian band from the 70's that had only a couple hits, but i like most
of their stuff. this is probably incorrect at points, but when i play it to the song,
it sounds good enough. so here it is!!!


Intro:
E|--------------------------------------------------------------------|
B|--------------------------------------------------------------------|
G|----777---7--7--7--7--7--7---10------777---7--7--7--7--7--7--7--7---|
D|----777----------------------10-10---777----------------------------|
A|----555-5--5--5--5--5--5-----8--10---555-5--5--5--5--5--5--5--5-----|
E|---------------------------------8----------------------------------|
      (X2)
Verse:
E|--------------------------------------------------------------------|
B|--------------------------------------------------------------------|
G|---777-----777-----7-----5--5--5--5----4--4--4--4--777---10---------|
D|---777-----777-----7-------------------------------777---10-10------|
A|---555-----555-----5---3--3--3--3----2--2--2--2----555---8--10------|
E|------------------------------------------------------------8-------|
 end of verse
E|--------------------------------------------------------------------|
B|--------------------------------------------------------------------|
G|----7--7--7--7--7--7--10--------7--7--7--7--7-----------------------|
D|----------------------10--10----------------7-----------------------|
A|--5--5--5--5--5--5----8---10--5--5--5--5----5-----------------------|
E|--------------------------8-----------------------------------------|

Chorus:
E|-----------7-8-----12-10-12----------10---------10--------10--------|
B|--8-8-8-10---------------------10-12------10-12-----10-12-----------|
G|--------------------------------------------------------------------|
D|--------------------------------------------------------------------|
A|--------------------------------------------------------------------|
E|--------------------------------------------------------------------|
 Guitar goes to the rhythm of the vocals

E|--------------------------------------------------------------------|
B|--10/12--10---------------------------------------------------------|
G|------------11-9-7----7-7---7------------4-5-7--9-7-9-----7-----7---|
D|--------------------9-----9------5-5-5-7--------------7-9---7-9-----|
A|--------------------------------------------------------------------|
E|--------------------------------------------------------------------|


E|--------------------------------------------------------------------|
B|--------------------------------------------------------------------|
G|------7-------------------------------------------------------------|
D|--7-9----7/9-7------------------------------------------------------|
A|---------------9-7-5----5-5---5-------------------------------------|
E|----------------------7-----7---------------------------------------|

 I want to fly away.....
E|--------------------------------------------------------------------|
B|--------------------------------------------------------------------|
G|--3~~~~~~---5~~~~~~-------------------------------------------------|
D|--3~~~~~~---5~~~~~~---5-3-5-3-----------3-5-5-3-5-------------------|
A|--1~~~~~~---3~~~~~~-----------5-3---5-5-----------------------------|
E|--------------------------------------------------------------------|


Verse:
 It's kind the same only there is a clean part followed by a distorted rhythm part

 Clean with some kind of effect like phaser, chorus or flanger???
 with this part, I just play it like this on my own. i'm not sure what they do.
E|----------------------------------|
B|----------------------------------|
G|----------5---------------4-------|
D|----5---5---5---5---4---4---4---4-|
A|--3---3-------3---2---2-------2---|
E|----------------------------------|


 Distorted
E|---------------------------------------|
B|---------------------------------------|
G|------------------------10------777----|
D|------------------------10--10--777----|
A|-5-555-555-555-555-555--8---10--555----|
E|----------------------------8----------|
pm......................

After this you play the second chorus and interlude thing, and after that you
play the chorus and interlude thing again til the end

oh and at the end you can hear something like

 til the end
E|--------10----------------|
B|---13b--13b---------------|
G|--------------------------|
D|--------------------------|
A|--------------------------|
E|--------------------------|

Also,if you can,
try to figure out the second verse part where it gets clean.
Toodles
            
Submit corrections

↑ Back to top | Tablatures and chords for acoustic guitar and electric guitar, ukulele, drums are parodies/interpretations of the original songs. You may use it for private study, scholarship, research or language learning purposes only