» » »

Spunge - Change Of Scene Tabs

Artists:  A B C D E F G H I J K L M N O P Q R S T U V W X Y Z # 

Change Of Scene Tabs

(ver. 1) Click to play this song!
Spunge
 Rating:
4/5 (4 votes)

 Change Of Scene lessons Tabs too difficult? Try these video lessons and learn fast
 
                     [SPUNGE] - CHANGE OF SCENE
INTRO 1
GTR 1
|-------------------------------|
|-------------------------------|
|----------9-9-9-9--x7-x7-------|
|-7-7-7-7--7-7-7-7--x5-x5-5---5-|
|-5-5-5-5-------------------7---|
|-------------------------------|
  pm.. ........ ...
GTR 2
|-------------------------------|
|-------------------------------|
|----------9-9-9-9--x7--7-------|
|-7-7-7-7--7-7-7-7--x5--5-5---5-|
|-5-5-5-5-------------------7---|
|-------------------------------|
  pm...............
INTRO 2
GTR 1
|-------------------------------|
|-------------------------------|
|----------9-9-9-9--7~----------|
|-7-7-7-7--7-7-7-7--5~----------|
|-5-5-5-5-----------------------|
|-------------------------------|
  pm.. ........ ...
GTR 2
|-------------------------------|
|-------------------------------|
|----------9-9-9-9--7~--7-77----|
|-7-7-7-7--7-7-7-7--5~--5-55----|
|-5-5-5-5-----------------------|
|-------------------------------|
  pm...............
BRIDGE
|----|
|-7~-|
|-7~-|
|-7~-|
|-5~-|
|----|

CHORUS 1
GTR 1
|-5~------5~-------7~-------------|
|-7~------5~-------7~-------------|
|-7~------5~-------8~-------------|
|-7~------7~-------9~--------5--7-|
|-5~------7~-------9~--------5--7-|
|---------5~-------7~--------3--5-|

GTR 2
|---------------------------------|
|---------------------------------|
|-7777777-------------------------|
|-7777777-77777777-99999999--5--7-|
|-5555555-77777777-99999999--5--7-|
|---------55555555-77777777--3--5-|
  pm.......................
CHORUS 2
GTR 1
|-5~------5~-------7--------------|
|-7~------5~-------7--------------|
|-7~------5~-------8--------------|
|-7~------7~-------9-xx5xx5xx5xx5-|
|-5~------7~-------9-xx5xx5xx5xx5-|
|---------5~-------7-xx3xx3xx3xx3-|

GTR 2
|---------------------------------|
|---------------------------------|
|-7777777-------------------------|
|-7777777-77777777-9-xx5xx5xx5xx5-|
|-5555555-77777777-9-xx5xx5xx5xx5-|
|---------55555555-7-xx3xx3xx3xx3-|
  pm................
ARPEGGIO
GTR 1
|---5---------5-------------------
|-----7-------------7--------7----
|-7-----7---7---7-----7----7---7--
|-----------------------7---------
|---------------------------------
|---------------------------------

-5-----------5-------------------|
---7-------7-------7--------7----|
-----7---7-------7---7----7---7--|
-------7----------------7--------|
---------------------------------|
---------------------------------|

GTR 2
|---------------------------------
|----------------x8-x8------------
|--x7-x7-x7-x7---x7-x7------------
|--x7-x7-x7-x7---x5-x5---5--------
|--x5-x5-x5-x5--------------7--5--
|---------------------------------

----------------------------------|
---------x10-x8~------------------|
--x7-x7--x9--x7~----------7-77----|
--x7-x7--x7--x5~----------5-55----|
--x5-x5---------------------------|
----------------------------------|

VERSE 1
GTR 1
|-------------------------------|
|-------------------------------|
|----------9-9-9-9--x7-x7-------|
|-7-7-7-7--7-7-7-7--x5-x5-5---5-|
|-5-5-5-5-------------------7---|
|-------------------------------|
  pm.. ........ ...
GTR 2
|--x5-x5---x5-x5---x5-x5-x5-x5--|
|--x7-x7---x5-x5---x7-x7-x7-x7--|
|--x7-x7---x7-x7---x7-x7-x7-x7--|
|--x7-x7---x7-x7---x7-x7-x7-x7--|
|-------------------------------|
|-------------------------------|

VERSE 2
GTR 1
|-------------------------------|
|-------------------------------|
|----------9-9-9-9--7~----------|
|-7-7-7-7--7-7-7-7--5~----------|
|-5-5-5-5-----------------------|
|-------------------------------|
  pm.. ........ ...
GTR 2
|--x5-x5---x5-x5---x5-x5--xxx5--|
|--x7-x7---x5-x5---x7-x7--xxx7--|
|--x7-x7---x7-x7---x7-x7--xxx7--|
|--x7-x7---x7-x7---x7-x7--xxx7--|
|-------------------------------|
|-------------------------------|

SOLO
|------------------------------------
|-----------------5-8-5--------------
|-7--7-5-7-5-7--7-------7--7-5-7-5---
|----------------------------------7-
|------------------------------------
|------------------------------------
------------------------5-8-5--------
--------------------5-8-------8-5----
------------5-7-5-7---------------7--
-------5-7---------------------------
--55-7-------------------------------
-------------------------------------
  pm..
----------------------|
--------5-8-5---------|
--7-5-7-------7---7-7-|
----------------------|
----------------------|
----------------------|

VERSE 3
GTR 1
|---------------------------------|
|---------------------------------|
|---------------------------------|
|---------7-------5-------5-------|
|-5-------------------------------|
|---------------------------------|

GTR 2
|---------------------------------|
|-----7-------7-------7-------7---|
|---7---7---7---7---7---7---7---7-|
|---------------------------------|
|---------------------------------|
|---------------------------------|

OUTRO 1
BOTH GTRS
|---------------------------------|
|---------------------------------|
|-7-77777-------------------------|
|-7-77777-7-777777-9-999999--5--7-|
|-5-55555-7-777777-9-999999--5--7-|
|---------5-555555-7-777777--3--5-|
    pm...   pm....   pm....
OUTRO 2
BOTH GTRS
|---------------------------------|
|---------------------------------|
|-7-77777-------------------------|
|-7-77777-7-777777-9-xx5xx5xx5xx5-|
|-5-55555-7-777777-9-xx5xx5xx5xx5-|
|---------5-555555-7-xx3xx3xx3xx3-|
    pm...   pm....

------------
INTRO 1 
INTRO 2   X6
------------
CHORUS 1
CHORUS 2

CHORUS 1  X2
------------
ARPEGGIO  X2
------------
VERSE 1
VERSE 2   X4
------------
CHORUS 1
CHORUS 2

CHORUS 1  X2
------------
SOLO
------------
VERSE 3   X2
------------
CHORUS 1
CHORUS 2

CHORUS 1  X2
------------
OUTRO 1
OUTRO 2

OUTRO 1   X2
------------
            
Submit corrections


        Change Of Scene lessons Hard to play? Try these video lessons and learn fast Change Of Scene lessons
        
↑ Back to top | Tablatures and chords for acoustic guitar and electric guitar, ukulele, drums are parodies/interpretations of the original songs. You may use it for private study, scholarship, research or language learning purposes only