» » »

Sportfreunde Stiller - Ich Roque Tabs

Artists:  A B C D E F G H I J K L M N O P Q R S T U V W X Y Z # 

Ich Roque Tabs

(ver. 1) Click to play this song!
Sportfreunde Stiller
 Rating:
4/5 (14 votes)

 Ich Roque lessons Tabs too difficult? Try these video lessons and learn fast
 
                Ich Roque – Sportfreunde Stiller
 


E |-------------------------------------------------------|
B |-------------------------------------------------------|
G |------------------------------------10-5-7-5-7-10------|  x5
D |7-7-7-7-7-7-7-7-7-7-7-7-7-7-7-7-7-7-10-5-7-5-7-10------|
A |7-7-7-7-7-7-7-7-7-7-7-7-7-7-7-7-7-7-8--3-5-3-5-8-------|
E |5-5-5-5-5-5-5-5-5-5-5-5-5-5-5-5-5-5--------------------|



E |-------------------------------------------------------|
B |-------------------------------------------------------|
G |-------------------------------------------------------|  x2 
D |5-5-5-5-5-5—5-5-5-5-5-5-5-5-3-3-3-3-3-3-3-3-3-3-3-3-3-3|
A |5-5-5-5-5-5-5-5-5-5-5-5-5-5-3-3-3-3-3-3-3-3-3-3-3-3-3-3|
E |3-3-3-3-3-3-3-3-3-3-3-3-3-3-1-1-1-1-1-1-1-1-1-1-1-1-1-1|





E |-------------------------------------------------------|
B |-------------------------------------------------------|  
G |5-5-5-5-5-----7-7-7-7-7--------------------------------|  x4
D |5-5-5-5-5-5-5-7-7-7-7-7-3-3----------------------------|
A |3-3-3-3-3-5-5-5-5-5-5-5-3-3----------------------------|
E |----------3-3-----------1-1----------------------------|





E |--------------------------------|
B |--------------------------------|  
G |--------------------------------|  x3
D |--------------------------------|
A |--------------------------------|
E |7-7-7-7-7-7-7-7-7-5-7-5---------|





E |--------------------------------|
B |--------------------------------|
G |10-5-7-5-7-10-------------------|  
D |10-5-7-5-7-10-------------------|
A |8--3-5-3-5-8--------------------|
E |--------------------------------|



E |-------------------------------------------------------|
B |-------------------------------------------------------|
G |------------------------------------10-5-7-5-7-10------|  x5
D |7-7-7-7-7-7-7-7-7-7-7-7-7-7-7-7-7-7-10-5-7-5-7-10------|
A |7-7-7-7-7-7-7-7-7-7-7-7-7-7-7-7-7-7-8--3-5-3-5-8-------|
E |5-5-5-5-5-5-5-5-5-5-5-5-5-5-5-5-5-5--------------------|
E |-------------------------------------------------------|
B |-------------------------------------------------------|
G |-------------------------------------------------------|  x2 
D |5-5-5-5-5-5—5-5-5-5-5-5-5-5-3-3-3-3-3-3-3-3-3-3-3-3-3-3|
A |5-5-5-5-5-5-5-5-5-5-5-5-5-5-3-3-3-3-3-3-3-3-3-3-3-3-3-3|
E |3-3-3-3-3-3-3-3-3-3-3-3-3-3-1-1-1-1-1-1-1-1-1-1-1-1-1-1|





E |-------------------------------------------------------|
B |-------------------------------------------------------|  
G |5-5-5-5-5-----7-7-7-7-7--------------------------------|  x4
D |5-5-5-5-5-5-5-7-7-7-7-7--------------------------------|
A |3-3-3-3-3-5-5-5-5-5-5-5--------------------------------|
E |----------3-3------------------------------------------|




E |0--------1--------------|
B |1-----3--1--------------|  
G |0-----2--2--------------|  x4
D |2--0--0--3--------------|
A |3--2-----3--------------|
E |---3-----1--------------|



E |-------------------------------------------------------|
B |-------------------------------------------------------|  
G |5-5-5-5-5-----7-7-7-7-7--------------------------------|  x6
D |5-5-5-5-5-5-5-7-7-7-7-7-3-3----------------------------|
A |3-3-3-3-3-5-5-5-5-5-5-5-3-3----------------------------|
E |----------3-3-----------1-1----------------------------|



E |0-0-1-2-3-2-2-2-3-4-5-4-4-4-5-6-5-7-20---|
B |-----------------------------------------|  
G |-----------------------------------------|  
D |-----------------------------------------|
A |-----------------------------------------|
E |-----------------------------------------|
            
Submit corrections


        Ich Roque lessons Hard to play? Try these video lessons and learn fast Ich Roque lessons
        
↑ Back to top | Tablatures and chords for acoustic guitar and electric guitar, ukulele, drums are parodies/interpretations of the original songs. You may use it for private study, scholarship, research or language learning purposes only