Home » S » Spoon »

Spoon - The Way We Get By Bass

Artists:  A B C D E F G H I J K L M N O P Q R S T U V W X Y Z # 

The Way We Get By Bass

(Version #3)
Spoon
G|---------------------------------|---------------------------------|
D|---------------------------------|------------------------------3--|
A|---------------------------------|----------------------------5---5|
E|---------------------------------|---------------------------------|

Chorus : 00:13
G|---------------------------------|---------------------------------|
D|7---7---7---7-\-5---5---5---5----|3---3---3---3---7---7---7---7-\--|
A|---------------------------------|---------------------------------|
E|---------------------------------|---------------------------------|

G|---------------------------------|---------------------------------|
D|5---5---5---5-\-3---3---3---3-/--|7--------------------------------|
A|---------------------------------|---------------------------------|
E|---------------------------------|---------------------------------|

G|---------------------------------|
D|---------------------------------|
A|---------------------------------|
E|---------------------------------|

Verse 1 :
G|---------------------------------|---------------------------------|
D|---------------------------------|---------------------------------|
A|---------------------------------|---------------------------------|
E|5--------------------0-1---0-1--/|5-------5------------0-1---0-1--/|

G|---------------------------------|---------------------------------|
D|---------------------------------|---------------------------------|
A|---------------------------------|---------------------------------|
E|5--------------------0-1---0-1--/|5-------5------------0-1---0-1--/|

Chorus :
G|---------------------------------|---------------------------------|
D|---------------------------------|---------------------------------|
A|---------------------------------|---------------------------------|
E|5---5---5---5-\-3---3---3---3-\--|1---1---1---1---5---5---5---5-\--|

G|---------------------------------|---------------------------------|
D|---------------------------------|---------------------------------|
A|---------------------------------|---------------------------------|
E|3---3---3---3---1---1---1---1-/--|5---5---5---5-\-3---3---3---3-\--|

G|---------------------------------|---------------------------------|
D|----------------7---7---7---7----|7---7---7---7---7---7---7---7----|
A|---------------------------------|---------------------------------|
E|1---1---1---1/5------------------|---------------------------------|

G|---------------|
D|7---7---7---7-\|
A|---------------|
E|---------------|

Verse 2 :
G|---------------------------------|---------------------------------|
D|---------------------------------|---------------------------------|
A|---------------------------------|---------------------------------|
E|5-------5-------5----0-1---0-1--/|5-------5-------5-------1---1-/--|

G|---------------------------------|---------------------------------|
D|---------------------------------|---------------------------------|
A|---------------------------------|---------------------------------|
E|5-------5-------5-------1---1-/--|5-------5-------5-------1---1/5--|

Chorus :
G|---------------------------------|---------------------------------|
D|7---7---7---7-\-5---5---5---5-\--|3---3---3---3-\------------------|
A|---------------------------------|---------------------------------|
E|---------------------------------|----------------5---5---5---5-\--|

G|---------------------------------|---------------------------------|
D|---------------------------------|---------------------------------|
A|---------------------------------|---------------------------------|
E|3---3---3---3-\-1---1---1---1-\--|5---5---5---5-\-3---3---3---3-\--|

G|--------------|
D|--------------|
A|--------------|
E|1---1---1---1-|

Verse 3 :
G|---------------------------------|---------------------------------|
D|---------------------------------|---------------------------------|
A|---------------------------------|---------------------------------|
E|5-------5-------5-------1---1---/|5-------5-------5-------1---1----|

Piano solo :
G|---------------------------------|---------------------------------|
D|---------------------------------|---------------------------------|
A|---------------------------------|---------------------------------|
E|5---5---5---5-\-3---3---3---3-\--|1---1---1---1-/-12--12--12--12---|

G|---------------------------------|---------------------------------|
D|---------------------------------|---------------------------------|
A|8---8---8---8-\-7---7---7---7----|7---7---7---7---7---7---7---7----|
E|---------------------------------|---------------------------------|

G|---------------------------------|---------------------------------|
D|---------------------------------|---------------/7\---------------|
A|8---8---8---8---7---7---7---7----|7---7---7---7-------7---5---3-\--|
E|---------------------------------|---------------------------------|

Verse 4 :
G|---------------------------------|---------------------------------|
D|---------------------------------|---------------------------------|
A|---------------------------------|---------------------------------|
E|5--------------------0-1---0-1--/|5-------5------------0-1---0-1--/|

G|---------------------------------|---------------------------------|
D|---------------------------------|---------------------------------|
A|---------------------------------|---------------------------------|
E|5--------------------0-1---0-1--/|5-------5------------0-1---0-1--/|

Chorus :
G|---------------------------------|---------------------------------|
D|7---7---7---7-\-5---5---5---5-\--|3---3---3------------------------|
A|---------------------------------|---------------------------------|
E|---------------------------------|----------0/3---5---5---5---5-\--|

G|---------------------------------|---------------------------------|
D|---------------------------------|---------------------------------|
A|---------------------------------|---------------------------------|
E|3---3---3---3---1---1---1---1----|5---5---5---5---3---3---3---3----|

G|--------------|
D|--------------|
A|--------------|
E|1---1---1---1-|

Outro :
G|---------------------------------|---------------------------------|
D|---------------------------------|---------------------------------|
A|---------------------------------|---------------------------------|
E|5-------5-------5----0-1---0-1---|---------------------------------|
            
Submit corrections

↑ Back to top | Tablatures and chords for acoustic guitar and electric guitar, ukulele, drums are parodies/interpretations of the original songs. You may use it for private study, scholarship, research or language learning purposes only