Home » S » Spirit »

Spirit - Animal Zoo Tabs

Artists:  A B C D E F G H I J K L M N O P Q R S T U V W X Y Z # 

Animal Zoo Tabs

(ver. 2) Click to play this song!
Spirit
Intro
e|----------------------------------------------|
B|--------7--x-x--7---7--x-x--7---7--x-x--------|
G|--------8--x-x--9---8--x-x--9---8--x-x--------|    Repeat x 4
D|--------9--x-x--x---9--x-x--x---9--x-x--------|
A|--------9--x-x--9---9--x-x--9---9--x-x--------|
E|----------------------------------------------|


(Verse) Livin' in the city... I've been...
|----------------------------------------------|
|--------7--x-x--7---7--x-x--7---7--x-x--------|
|--------8--x-x--9---8--x-x--9---8--x-x--------|
|--------9--x-x--x---9--x-x--x---9--x-x--------|
|--------9--x-x--9---9--x-x--9---9--x-x--------|
|----------------------------------------------|

      ....abused...       ...(he has)
|----------------------------------------------|
|--------5--x-x--5---5--x-x--5---5--x-x--------|
|--------6--x-x--7---6--x-x--7---6--x-x--------|
|--------7--x-x--x---7--x-x--x---7--x-x--------|
|--------7--x-x--7---7--x-x--7---7--x-x--------|
|----------------------------------------------|

      The jobs I keep and the people I meet...
|----------------------------------------------|
|--------3--x-x--3---3--x-x--3---3--x-x--------|
|--------4--x-x--5---4--x-x--5---4--x-x--------|
|--------5--x-x--x---5--x-x--x---5--x-x--------|
|--------5--x-x--5---5--x-x--5---5--x-x--------|
|----------------------------------------------|

   They don't do more than make me amused
|----------------------------------------------|
|------7---------9-----------------------------|
|------7---------9---------6-------/8---8------|
|------7---------9---------7-------/9---9------|
|------5---------7---------7-------/9---9------|
|--------------------------5-------/7---7------|

         Everywhere I turn now... just more bad
|----------------------------------------------|
|--------7--x-x--7---7--x-x--7---7--x-x--------|
|--------8--x-x--9---8--x-x--9---8--x-x--------|
|--------9--x-x--x---9--x-x--x---9--x-x--------|
|--------9--x-x--9---9--x-x--9---9--x-x--------|
|----------------------------------------------|

        News...
|----------------------------------------------|
|--------5--x-x--5---5--x-x--5---5--x-x--------|
|--------6--x-x--7---6--x-x--7---6--x-x--------|
|--------7--x-x--x---7--x-x--x---7--x-x--------|
|--------7--x-x--7---7--x-x--7---7--x-x--------|
|----------------------------------------------|

         So don't look now, and don't ask how
|----------------------------------------------|
|--------3--x-x--3---3--x-x--3---3--x-x--------|
|--------4--x-x--5---4--x-x--5---4--x-x--------|
|--------5--x-x--x---5--x-x--x---5--x-x--------|
|--------5--x-x--5---5--x-x--5---5--x-x--------|
|----------------------------------------------|

   Gonna find me a way to the animal zoo
|----------------------------------------------|
|--------7--------7-----------9------9---------|
|--------7--------7-----------9------9---------|
|--------7--------7-----------9------9---------|
|--------5--------5-----------7------7---------|
|----------------------------------------------|

(Chorus)  Oh no, something went wrong
|----------------------------------------------|
|----------------------------------------------|
|--8---8-----------------8---8-----------------|
|--9---9-----------------9---9-----------------|
|--9---9-----------------9---9-----------------|
|--7---7-----------------7---7-----------------|

   Well you're much too fat and a little too long
|----------------------------------------------|
|----------------------------------------------|
|--8---8-----------------8---8-----------------|
|--9---9-----------------9---9-----------------|
|--9---9-----------------9---9-----------------|
|--7---7-----------------7---7-----------------|

   Hey hey, got too much to lose
|----------------------------------------------|
|----------------------------------------------|
|--8---8-----------------8---8-----------------|
|--9---9-----------------9---9-----------------|
|--9---9-----------------9---9-----------------|
|--7---7-----------------7---7-----------------|

   Got to get on back to the animal zoo
|----------------------------------------------|
|----------------------------------------------|
|--8---8-----------------8---8-----------------|
|--9---9-----------------9---9-----------------|
|--9---9-----------------9---9-----------------|
|--7---7-----------------7---7-----------------|

        Heeeeee- eeeeeeey
|----------------------------------------------|
|--------7--------7--------7--------7----------|
|--------7--------7--------7--------7----------|
|--------7--------7--------7--------7----------|
|--------5--------5--------5--------5----------|
|----------------------------------------------|

        Hey ey   ey   aaaa-ah    ah-ey
|----------------------------------------------|
|--------9--------9--------9--------9----------|
|--------9--------9--------9--------9----------|
|--------9--------9--------9--------9----------|
|--------7--------7--------7--------7----------|
|----------------------------------------------|

(Bridge)
|----------------------------------------------|
|----------------------------------------------|
|----------------------------------------------|
|--------9-9-9-9-----------9-9---9-------------|
|----------------------------------9-----------|
|----------------7-7-----------------7---------|

|----------------------------------------------|
|----------------------------------------------|
|----------------------------------------------|
|--------9-9-9-9-----------9-9---9-------------|
|----------------------------------9-----------|
|----------------7-7-----------------7---------|

(Verse) Looking at my body, I'm slippin 
|----------------------------------------------|
|--------7--x-x--7---7--x-x--7---7--x-x--------|
|--------8--x-x--9---8--x-x--9---8--x-x--------|
|--------9--x-x--x---9--x-x--x---9--x-x--------|
|--------9--x-x--9---9--x-x--9---9--x-x--------|
|----------------------------------------------|

      ....down             (So far)
|----------------------------------------------|
|--------5--x-x--5---5--x-x--5---5--x-x--------|
|--------6--x-x--7---6--x-x--7---6--x-x--------|
|--------7--x-x--x---7--x-x--x---7--x-x--------|
|--------7--x-x--7---7--x-x--7---7--x-x--------|
|----------------------------------------------|

      The air I breathe and the water I drink...
|----------------------------------------------|
|--------3--x-x--3---3--x-x--3---3--x-x--------|
|--------4--x-x--5---4--x-x--5---4--x-x--------|
|--------5--x-x--x---5--x-x--x---5--x-x--------|
|--------5--x-x--5---5--x-x--5---5--x-x--------|
|----------------------------------------------|

   Is selling me short and turning me around
|----------------------------------------------|
|------7---------9-----------------------------|
|------7---------9---------6-------/8---8------|
|------7---------9---------7-------/9---9------|
|------5---------7---------7-------/9---9------|
|--------------------------5-------/7---7------|


       Everyone I see now, on their way...
|----------------------------------------------|
|--------7--x-x--7---7--x-x--7---7--x-x--------|
|--------8--x-x--9---8--x-x--9---8--x-x--------|
|--------9--x-x--x---9--x-x--x---9--x-x--------|
|--------9--x-x--9---9--x-x--9---9--x-x--------|
|----------------------------------------------|

        ..too            (Everybody)...
|----------------------------------------------|
|--------5--x-x--5---5--x-x--5---5--x-x--------|
|--------6--x-x--7---6--x-x--7---6--x-x--------|
|--------7--x-x--x---7--x-x--x---7--x-x--------|
|--------7--x-x--7---7--x-x--7---7--x-x--------|
|----------------------------------------------|

       So don't look now and don't ask how
|----------------------------------------------|
|--------3--x-x--3---3--x-x--3---3--x-x--------|
|--------4--x-x--5---4--x-x--5---4--x-x--------|
|--------5--x-x--x---5--x-x--x---5--x-x--------|
|--------5--x-x--5---5--x-x--5---5--x-x--------|
|----------------------------------------------|

   Gonna find a way home to the animal zoo
|----------------------------------------------|
|--------7--------7-----------9------9---------|
|--------7--------7-----------9------9---------|
|--------7--------7-----------9------9---------|
|--------5--------5-----------7------7---------|
|----------------------------------------------|

(Chorus)  Oh no, something went wrong
|----------------------------------------------|
|----------------------------------------------|
|--8---8-----------------8---8-----------------|
|--9---9-----------------9---9-----------------|
|--9---9-----------------9---9-----------------|
|--7---7-----------------7---7-----------------|

   Well you're much too fat and a little too long
|----------------------------------------------|
|----------------------------------------------|
|--8---8-----------------8---8-----------------|
|--9---9-----------------9---9-----------------|
|--9---9-----------------9---9-----------------|
|--7---7-----------------7---7-----------------|

   Hey hey, got too much to lose
|----------------------------------------------|
|----------------------------------------------|
|--8---8-----------------8---8-----------------|
|--9---9-----------------9---9-----------------|
|--9---9-----------------9---9-----------------|
|--7---7-----------------7---7-----------------|

   Got to get on home to the animal zoo
|----------------------------------------------|
|----------------------------------------------|
|--8---8-----------------8---8-----------------|
|--9---9-----------------9---9-----------------|
|--9---9-----------------9---9-----------------|
|--7---7-----------------7---7-----------------|

        Heeeeee- eeeeeeey
|----------------------------------------------|
|--------7--------7--------7--------7----------|
|--------7--------7--------7--------7----------|
|--------7--------7--------7--------7----------|
|--------5--------5--------5--------5----------|
|----------------------------------------------|

        Hey ey   ey   aaaa-ah    ah-ey
|----------------------------------------------|
|--------9--------9--------9--------9----------|
|--------9--------9--------9--------9----------|
|--------9--------9--------9--------9----------|
|--------7--------7--------7--------7----------|
|----------------------------------------------|

(Interlude)
|----------------------------------------------|
|----------------------------------------------|
|----------------------------------9-7---------|
|--------9-9-9-9-----------9-9-----------------|
|----------------------------------------------|
|----------------7-7---------------------------|

|----------------------------------------------|
|----------------------------------------------|
|----------------------------------9-7---------|
|--------9-9-9-9-----------9-9-----------------|
|----------------------------------------------|
|----------------7-7---------------------------|

|----------------------------------------------|
|----------------------------------------------|
|----------------------------------9-7---------|
|--------9-9-9-9-----------9-9-----------------|
|----------------------------------------------|
|----------------7-7---------------------------|

|----------------------------------------------|
|----------------------------------------------|
|----------------------------------------------|
|--------9-9---9-9---9-9---9-9-----------------|
|----------------------------------------------|
|----------------------------------------------|

(Instrumental - played with hammond in original but tabbed for guitar)
|----------------------------------------------|
|----------------------------------------------|
|--------8-----8-----8-----8-------------------|
|--------9-----9-----9-----9-------------------|
|--------9-----9-----9-----9-------------------|
|------7-7---7-7---7-7---7-7-------------------|

|----------------------------------------------|
|----------------------------------------------|
|--------6-----6-----6-----6-------------------|
|--------7-----7-----7-----7-------------------|
|--------7-----7-----7-----7-------------------|
|------5-5---5-5---5-5---5-5-------------------|

|----------------------------------------------|
|----------------------------------------------|
|--------4-----4-----4-----4-------------------|
|--------5-----5-----5-----5-------------------|
|--------5-----5-----5-----5-------------------|
|------3-3---3-3---3-3---3-3-------------------|

|----------------------------------------------|
|------7---------9-----------------------------|
|------7---------9---------6-------/8---8------|
|------7---------9---------7-------/9---9------|
|------5---------7---------7-------/9---9------|
|--------------------------5-------/7---7------|

(4 bar Guitar solo - still be worked out, help welcome)

(Repeat chorus)

(Bridge)
|----------------------------------------------|
|----------------------------------------------|
|----------------------------------------------|
|--------9-9-9-9-----------9-9---9-------------|
|----------------------------------9-----------|
|----------------7-7-----------------7---------|

|----------------------------------------------|
|----------------------------------------------|
|----------------------------------------------|
|--------9-9-9-9-----------9-9---9-------------|
|----------------------------------9-----------|
|----------------7-7-----------------7---------|

(Outro) Oh no, something went wrong
|----------------------------------------------|
|----------------------------------------------|
|----------------------------------------------|
|--------9-9-9-9-----------9-9---9-------------|
|----------------------------------9-----------|
|----------------7-7-----------------7---------|

  Well you're much too fat and a little too long
|----------------------------------------------|
|----------------------------------------------|
|----------------------------------------------|
|--------9-9-9-9-----------9-9---9-------------|
|----------------------------------9-----------|
|----------------7-7-----------------7---------|

  Much too fat and a little too long
|----------------------------------------------|
|----------------------------------------------|
|----------------------------------------------|
|--------9-9-9-9-----------9-9---9-------------|
|----------------------------------9-----------|
|----------------7-7-----------------7---------|

(to fade)            
Submit corrections

↑ Back to top | Tablatures and chords for acoustic guitar and electric guitar, ukulele, drums are parodies/interpretations of the original songs. You may use it for private study, scholarship, research or language learning purposes only