» » »

Spineshank - The Height Of Callousness Tabs

Artists:  A B C D E F G H I J K L M N O P Q R S T U V W X Y Z # 

The Height Of Callousness Tabs

(ver. 3) Click to play this song!
Spineshank
 Rating:
4/5 (4 votes)

 The Height Of Callousness lessons Tabs too difficult? Try these video lessons and learn fast
 
                Transcription to "The Heigh of Callousness" by Spineshank
ICQ - 19504166

This is the way I play this song.  I find it to be pretty accurate.  If you have
corrections or questions or anything, please feel free to email or ICQ me.
I've become motivated to tab out most of this album, so you can expect more 

Tuning

Low to High
B F# B E G# C#

Intro Riff

C#-------------------------------------------------
G#-------------------------------------------------
E -------------------------------------------------
B --2-2-2-2-2-2-2h3p2-0-0--2-2-2-2-2-2-5-5-7-7-5-5-
F#--2-2-2-2-2-2-2h3p2-0-0--2-2-2-2-2-2-5-5-7-7-5-5-
B --2-2-2-2-2-2-2h3p2-0-0--2-2-2-2-2-2-5-5-7-7-5-5-

Verse

C#-------------------------------------------------
G#-------------------------------------------------
E -------------------------------------------------
B -------------------------------------------------
F#-------------------------------------------------
B --2-2-2-2-2-2-2h3p2-0-0--2-2-2-2-2-2-5-5-7-7-5-5-

Chorus

C#----------------------------------------------
G#----------------------------------------------
E ----------------------------------------------
B ---------------------------------3-3-5-5-3-3--
F#---------------------------------3-3-5-5-3-3--
B --1p0-0-0-0-1p0-0-0-0-1p0-0-0-0--3-3-5-5-3-3--

Part after the first chorus is just samples i think
but if you want to play something, play this

C#-------------------------------------------------
G#-------------------------------------------------
E -------------------------------------------------
B --2-2-2-2-2-2-2h3p2-0-0--2-2-2-2-2-2-5-5-7-7-5-5-
F#-------------------------------------------------
B -------------------------------------------------

The rest of the song is just repeating the stuff above.

End on

B -0-
F#-0-
B -0-

Enjoy, and if you don't have this album, go buy it, not download it off Napster
Stephen
            
Submit corrections


        The Height Of Callousness lessons Hard to play? Try these video lessons and learn fast The Height Of Callousness lessons
        
↑ Back to top | Tablatures and chords for acoustic guitar and electric guitar, ukulele, drums are parodies/interpretations of the original songs. You may use it for private study, scholarship, research or language learning purposes only