» » »

Spineshank - Slavery Tabs

Artists:  A B C D E F G H I J K L M N O P Q R S T U V W X Y Z # 

Slavery Tabs

(ver. 2) Click to play this song!
Spineshank
 Rating:
4/5 (4 votes)

 Slavery lessons Tabs too difficult? Try these video lessons and learn fast
 
                INTRO (play 4 times then let ring on 2nd fret chord)
E)-----------------------------------------------------------------------------------
b)-----------------------------------------------------------------------------------
g)-----------------------------------------------------------------------------------
d)-----------------------------------------------------------------------------------
a)---2--0-0----7-7-7-7-8-8-8-8-10-10-10-10-5-5-5-5-----------------------------------
e)---2--0-0--------------------------------------------------------------------------

VERSE INTRO (play 2 times)
E)-----------------------------------------------------------------------------------
b)-----------------------------------------------------------------------------------
g)-----------------------------------------------------------------------------------
d)------9-9-9--7-7-7--9-9-9--7-7-7---10-10--12-12------------------------------------
a)------7-7-7--5-5-5--7-7-7--5-5-5----8--8--10-10------------------------------------
e)-----------------------------------------------------------------------------------

VERSE
E)-----------------------------------------------------------------------------------
b)-----------------------------------------------------------------------------------
g)-----------------------------------------------------------------------------------
d)-----------------------------------------------------------------------------------
a)--2-2-2-0-0-0-2-2-2-0-0-0-3-3-5-5--------------------------------------------------
e)--2-2-2-0-0-0-2-2-2-0-0-0-3-3-5-5--------------------------------------------------

CHORUS 1
E)-----------------------------------------------------------------------------------
b)-----------------------------------------------------------------------------------
g)-----------------------------------------------------------------------------------
d)-----------------------------------------------------------------------------------
a)--0-0-0-0-0-0-0-0-0-0-0-0-0-0-0-3-3-3-3-3-3-3-3-3-3-3-3-3-3-3-3-5-5-5-5-5-5-5-5-5-5
e)--0-0-0-0-0-0-0-0-0-0-0-0-0-0-0-0-3-3-3-3-3-3-3-3-3-3-3-3-3-3-3-3-5-5-5-5-5-5-5-5-5

CHORUS 1
E)-----------------------------------------------------------------------------------
b)-----------------------------------------------------------------------------------
g)-----------------------------------------------------------------------------------d)---------------------------0-------------------------------------------------------
a)--5-5-5-5-5-5-8-8-8-8-8-8----------------------------------------------------------
e)--5-5-5-5-5-5-5-8-8-8-8-8-8--------------------------------------------------------

E)-----------------------------------------------------------------------------------
b)-----------------------------------------------------------------------------------
g)-----------------------------------------------------------------------------------
d)-------------7---7-----------------------------------------------------------------
a)--8-8-8-8-8--7---7-----------------------------------------------------------------
e)--8-8-8-8-8--7---7-----------------------------------------------------------------

CHORUS 2 ("This feels like slavery" part)
E)-----------------------------------------------------------------------------------
b)-----------------------------------------------------------------------------------
g)-----------------------------------------------------------------------------------
d)------0--0-----------0--0-----------0--0-------------------------------------------
a)------0--0----1-0-1--0--0----1-0-1--0--0----1-0-1--0--3-3-3-3-3-3-3----------------
e)------0--0----1-0-1--0--0----1-0-1--0--0----1-0-1--0--3-3-3-3-3-3-3----------------
            
Submit corrections


        Slavery lessons Hard to play? Try these video lessons and learn fast Slavery lessons
        
↑ Back to top | Tablatures and chords for acoustic guitar and electric guitar, ukulele, drums are parodies/interpretations of the original songs. You may use it for private study, scholarship, research or language learning purposes only