» » »

Spineshank - Negative Space Tabs

Artists:  A B C D E F G H I J K L M N O P Q R S T U V W X Y Z # 

Negative Space Tabs

(ver. 2) Click to play this song!
Spineshank
 Rating:
4/5 (4 votes)

 Negative Space lessons Tabs too difficult? Try these video lessons and learn fast
 
                Tuning: Standard open E (EBGDAE)

Intro
E |-----------------------|
B |-----------------------|
G |-----------------------|
D |-7--7--7-8---7--7--7-8-|
A |-7--7--7-8---7--7--7-8-|
E |-5--5--5-6---5--5--5-6-|x4

Verse
E |----------------------------------------------------|
B |----------------------------------------------------|
G |----------------------------------------------------|
D |----------------------------------------------------|
A |--------------8-8-8-8-8-8--5-5-5-5-5-5--7-7-7-7-7-7-|
E |-5-5-5-5-5-5----------------------------------------|x3
    PM------------------------------------------------|

E |--------------------------------------------------------|
B |--------------------------------------------------------|
G |--------------10-10-10-10-10-10--7-7-7-7-7-7--9-9-9-9-9-|
D |-7-7-7-7-7-7--------------------------------------------|
A |--------------------------------------------------------|
E |--------------------------------------------------------|x1
    PM----------------------------------------------------|

Chorus (listen for rhythm)
E |---------------------------------------------|
B |---------------------------------------------|
G |------------10----10-----5-----5-----7-----7-|
D |-7-----7----10----10-----5-----5-----7-----7-|
A |-7-----7-----8-----8-----3-----3-----5-----5-|
E |-5-----5-------------------------------------|x4

Bridge
E |-----------|
B |-----------|
G |-----------|
D |-7-----3---|
A |-7-----3---|
E |-5-----1---|x4

E |-------------------------------|
B |-------------------------------|
G |-----------------9-9-9-9-9-9-9-|
D |-7-7-7-7-7-7-7-7-9-9-9-9-9-9-9-|
A |-7-7-7-7-7-7-7-7-7-7-7-7-7-7-7-|
E |-5-5-5-5-5-5-5-5---------------|x1

E |---------------------------------|
B |---------------------------------|
G |---------5-5-5-5-7-7-7-7-7-7-7-7-|
D |-7-7-7-7-5-5-5-5-7-7-7-7-7-7-7-7-|
A |-7-7-7-7-3-3-3-3-5-5-5-5-5-5-5-5-|
E |-5-5-5-5-------------------------|x1
            
Submit corrections


        Negative Space lessons Hard to play? Try these video lessons and learn fast Negative Space lessons
        
↑ Back to top | Tablatures and chords for acoustic guitar and electric guitar, ukulele, drums are parodies/interpretations of the original songs. You may use it for private study, scholarship, research or language learning purposes only