» » »

Spineshank - Malnutrition Tabs

Artists:  A B C D E F G H I J K L M N O P Q R S T U V W X Y Z # 

Malnutrition Tabs

(ver. 2) Click to play this song!
Spineshank
 Rating:
4/5 (4 votes)

 Malnutrition lessons Tabs too difficult? Try these video lessons and learn fast
 
                
Tuning: Drop D, Down 3 Steps
(A#, F, A#, D#, G, C)

Intro/Bridge
C |-------------------------|
G |-------------------------|
D#|-------------------------|
A#|-------------------------|
F |-1-1--0-0--1-1--0-0--1-0-|
A#|-1-1--0-0--1-1--0-0--1-0-| 
    PM--------------------|

C |-------------------------|
G |-------------------------|
D#|-------------------------|
A#|-------------------------|
F |-0----1-----5----4-------|
A#|-0----1-----5----4-------|
	
Chorus
C |-----------------------------------------------|
G |-----------------------------------------------|
D#|-4------------------------4--------------------|
A#|-2------------------------3--------------------|
F |-2------10---10----10-----3------11---11----11-|
A#|-2------10---10----10-----3------11---11----11-|

C |--------------------------|
G |--------------------------|
D#|--------------------------|
A#|--------------------------|
F |--------------------------|
A#|-0--0-0--0-0--0-0--0-0--0-|


Interlude
C |-------------------------------|
G |-------------------------------|
D#|-------------------------------|
A#|-------------------------------|
F |-------------------------------|
A#|-0--0-0--0-0--0-0--0-0--0-0--3-|

C |-------------------------------|
G |-------------------------------|
D#|-------------------------------|
A#|-------------------------------|
F |-------------------------------|
A#|-5--5-5--5-5--5-5--5-5--5-5--3-|
            
Submit corrections


        Malnutrition lessons Hard to play? Try these video lessons and learn fast Malnutrition lessons
        
↑ Back to top | Tablatures and chords for acoustic guitar and electric guitar, ukulele, drums are parodies/interpretations of the original songs. You may use it for private study, scholarship, research or language learning purposes only