» » »

Spineshank - Grey Tabs

Artists:  A B C D E F G H I J K L M N O P Q R S T U V W X Y Z # 

Grey Tabs

(ver. 2) Click to play this song!
Spineshank
 Rating:
4/5 (4 votes)

 Grey lessons Tabs too difficult? Try these video lessons and learn fast
 
                TUNING - DGCFAD

Verse 1
|---------------------------|
|---------------------------|
|---------------------------|
|-6-6-6-6---6-6-6-6-6-6-6-6-|
|-4-4-4/5---4-4-4-4-5-5-5-5-|
|---------------------------|


Verse 2
|-----------------|
|-----------------|
|-----------------|
|-6-6-6-6-6-6-6-6-|
|-4-4-4-4-4-5-5-5-|
|-----------------|
  . . . . .

Verse 1
Verse 2

Bridge 
|-----------------------------|
|-----------------------------|
|-----------------------------|
|-----------------------------|
|-7-7-7-7-7-7-5-5-5-5-5-5-5-5-|
|-----------------------------|

Chorus
|-------------------------|
|-------------------------|
|-------------------------|
|-8--8--8--8--11--11-4--6-|
|-6--6--6--6---9---9-2--4-|
|-------------------------|

Fill right after chorus
|-----------------------------|
|-----------------------------|
|-----------------------------|
|-----------------------------|
|-7-7-7-7-7-7-8-8-8-8-8-8-8-8-|
|-----------------------------|

After this
|--------------------|
|--------------------|
|--------------------|
|-6--6--6--6--9--9-7-|
|-4--4--4--4--7--7-5-|
|--------------------|

Let ring
|---|
|---|
|---|
|-6-|
|-4-|
|---|


Verse 1
Verse 2
Bridge
Chorus x2
Verse 1

Then let this ring again twice
|---|
|---|
|---|
|-6-|
|-4-|
|---|

Enjoi.
            
Submit corrections


        Grey lessons Hard to play? Try these video lessons and learn fast Grey lessons
        
↑ Back to top | Tablatures and chords for acoustic guitar and electric guitar, ukulele, drums are parodies/interpretations of the original songs. You may use it for private study, scholarship, research or language learning purposes only