Home » S » Spinal Tap »

Spinal Tap - Tonight I'm Gonna Rock You Tonight Tabs

Artists:  A B C D E F G H I J K L M N O P Q R S T U V W X Y Z # 

Tonight I'm Gonna Rock You Tonight Tabs

(ver. 3) Click to play this song!
Spinal Tap
Tonight I'm gonna Rock You Tonight solos as on the Album!

I know the solos are pretty easy to tab, but for beginners it might help.

Solo 1:
Start with a bunch of 5-8fret hammerons and pulloffs on the high e string (a to c)
e|-8-8b10-------------------------------------------------------------|
B|--------8b10--------------------------------------------------------|
G|--------------7b9--5-7-5--7b9p5----7b9-7b9-7b9--7b9*-7b9*-7b9*-7b9*-|
D|--------------------------------7-----------------------------------|
A|--------------------------------------------------------------------|
E|--------------------------------------------------------------------|

e|----------------------------------------|
B|----------------------------------------|
G|-7b9--5-7-5-5-5-7b9p5-------------------|
D|----------------------7-----------------|
A|----------------------------------------|
E|----------------------------------------|

solo 2:
e|---------------------------------------------------|
B|-----------------------------------7b9-------------|
G|-7b9-<7>p5--------5-5-7b9-7b9p5--------7b9-7b9p5---|
D|-----------7--7-7---------------7----------------7-|
A|---------------------------------------------------|
E|---------------------------------------------------|

solo 3:
start with a bunch of 5-8fret hammerons and pulloffs on the high e string (a-c)then 
up to 7-10 hammerons and pulloffs (b to d) then slide to
8-11 hammerons and pulloffs (c-d#) then slide back down
e|----------------------------------------|
B|----------------------------------------|
G|-7b9--7b9-7b9--5--765-765-765---5-------|
D|------------------------------7---7-----|
A|----------------------------------------|
E|----------------------------------------|
*piano break*

Solo 4:
e|------------------------10---8-8-7-7-7------------------|
B|-8b10--8b10-----------------------------10-10-10-10-----|
G|-------------5-7-5-7------------------------------------|
D|---------------------7----------------------------------|
A|--------------------------------------------------------|
E|--------------------------------------------------------|

There they are. Theres already a good tab for the normal song that i commented on, i'd 
change the intro to all power chords.

heres what the symbols mean:
b.........................................bend (the number that follows is the fret 
that you bend to)
h.........................................hammeron (i don't think i have this symbol 
in here)
p.........................................pulloff
<#>.......................................pinch harmonic
*.........................................simi-harmonic (light touch of thumb on note)

This whole song is really cool. It surprised me when this came up on a comedy music movie.

Rock on!!!
            
Submit corrections

↑ Back to top | Tablatures and chords for acoustic guitar and electric guitar, ukulele, drums are parodies/interpretations of the original songs. You may use it for private study, scholarship, research or language learning purposes only