Home » S » Spinal Tap »

Spinal Tap - Bitch School Tabs

Artists:  A B C D E F G H I J K L M N O P Q R S T U V W X Y Z # 

Bitch School Tabs

(ver. 3) Click to play this song!
Spinal Tap

     A       D5
|---------------|
|-----------0---|
|----2-2--2-3---|
|----2-2--2-2---|
|----0-0--0-----|
|---------------|

 It's a main riff and figure for :
'' You've been bad .....'' to ''...won't be good''
Than :

''You won't behave ....''

     E
|---------------|
|---------------|
|----1----------|
|----2----------|
|----2----------|
|---------------|
  
''Start to give...''
 F#
|1--------------|
|1--------------|
|2--------------|
|3--------------|
|3--------------|
|1--------------|

 ''I'm gonna send...''

|3--------------|
|3--------------|
|4--------------|
|5--------------|
|5--------------|
|3--------------|

  Chorus
''b**ch School!''

D5
|---------------|
|--3--3---------|
|--2--2---------|
|--0--0---------|
|---------------|
|---------------|
  
''b**ch School!''
|---------------|
|--3--3------|
|--2--2--(2)----|
|--0--0--(2)----|
|---------(0)---|
|---------------|
  
 At the second couplet play all like in first, without playing intro main riff. Than, the bridge:
''No more...''
|---------------|
|---------------|
|-5-5--3--------|
|-5-5--3-3------|
|-3-3--1-3------|
|--------1------|
         
 ''You think...''
|---------------|
|---------------|
|-7-7--5--------|
|-7-7--5-5------|
|-5-5--3-5------|
|--------3------|
''When ....my bite''
 |---------------|
|---------------|
|-9--9---7------|
|-9--9---7--7---|
|-7--7---5--7---|
|--------5------|
Then you ought play main riff twice.

Solo:
            ~~~~~       ~~ 
E|----------------------|
B|---2--4-6-6-6-6-4-2-7-|
G|--4-------------------|
D|----------------------|
A|----------------------|
E|----------------------|

E|---------------------|
B|--4-6-8--8-8-8-6-4-9-|
G|-6-------------------|
D|---------------------|
A|---------------------|
E|---------------------|            
Submit corrections

↑ Back to top | Tablatures and chords for acoustic guitar and electric guitar, ukulele, drums are parodies/interpretations of the original songs. You may use it for private study, scholarship, research or language learning purposes only