Home » S » Spencer Davis Group »

Spencer Davis Group - Keep On Running Bass

Artists:  A B C D E F G H I J K L M N O P Q R S T U V W X Y Z # 

Keep On Running Bass

(ver. 3) Click to play this song!
Spencer Davis Group
Intro:
G|-------------------------------------------------------------------------
D|-------------------------------------------------------------------------
A|-----------------5-5-0-3-5-3-0---------------5-5-0-3-5-3-0---------------
E|-5-0-5-0-3-5-3-0---------------5-5-0-3-5-3-0---------------5-5-0-3-5-3-0-

G|-----------------------------------------------------------
D|-----------------------------------------------------------
A|-5-5-0-3-5-3-0---------------5-5-0-3-5-3-0-----7-7-7-77-77-
E|---------------5-5-0-3-5-3-0-------------------------------

Verse 1:
G|-----------------------------------------------------------------------
D|----7--7-7-----7--7-7-----7------------7-------------------------------
A|-7-9-9------7-9-9------7-9-9--7-7---7-9-9--7-7---9-7-7--9-9-----5--5-5-
E|----------------------------------------------------9--------5-7-7-----

G|------------------------7/11-9------------------------------
D|--------------------0-0-------11-9---7-7-----7--------------
A|-5---5----------0-2-----------------------7-9-9-7-7-7-77-77-
E|--7-5--5-5---0-2--------------------------------------------

Verse 2:
G|-----------------------------------------------------------------------
D|----7--7-7-----7--7-7-----7------------7-------------------------------
A|-7-9-9------7-9-9------7-9-9--7-7---7-9-9--7-7---9-7-7--9-9-----5--5-5-
E|----------------------------------------------------9--------5-7-7-----

G|------------------------7/11-9----------------------
D|--------------------0-0-------11-9---7-7-----7--7-7-
A|-5---5----------0-2-----------------------7-9-9-----
E|--7-5--5-5---0-2------------------------------------

Bridge 1:
G|--------------------------------------------------------------------
D|-7-6----------------------------------------------------------------
A|----9---9-7----7-9--99----9-8-7--77---77---7-8-9--9-7----7-9--9-9---
E|-----------9--9-------99----------7-7-----------------9--9----=--99-

               [Quavers]
G|----------------------
D|----------------------
A|-9-8-7--77---77777777-
E|----------7-7---------

Instrumental Interlude:
G|-----------------------------------------------------------------------
D|-----------------------------------------------------------------------
A|---------------5-5-0-3-5-3-0---------------5-5-0-3-5-3-0---------------
E|-5-5-0-3-5-3-0---------------5-5-0-3-5-3-0---------------5-5-0-3-5-3-0-

G|-----------------------------------------------------------
D|-----------------------------------------------------------
A|-5-5-0-3-5-3-0---------------5-5-0-3-5-3-0-----7-7-7-77-77-
E|---------------5-5-0-3-5-3-0-------------------------------

Repeat Verse 2:

Bridge 2:
G|----------------------------------------------------------------------
D|-7-6------------------------------------------------------------------
A|----9---9-7----7-9--9-9----9-8-7--77---77---7-8-9--9-7----7-9--9-9----
E|-----------9--9--------99-----------7-7---------------9--9---------99-

G|-----------------
D|-----------------
A|-9-8-7--77---7-7-
E|----------7-7----

Final Verse:
G|-----------------------------------------------------------------------
D|----7--7-7-----7--7-7-----7------------7-------------------------------
A|-7-9-9------7-9-9------7-9-9--7-7---7-9-9--7-7---9-7-7--9-9-----5--5-5-
E|----------------------------------------------------9--------5-7-7-----

G|------------------------7/11-9-----
D|--------------------0-0-------11-9-
A|-5---5----------0-2----------------
E|--7-5--5-5---0-2-------------------

Outro:
G|-----------------------------------------------------------------------
D|-----------------------------------------------------------------------
A|---------------5-5-0-3-5-3-0---------------5-5-0-3-5-3-0---------------
E|-5-5-0-3-5-3-0---------------5-5-0-3-5-3-0---------------5-5-0-3-5-3-0-

G|-------------------------------------------
D|-------------------------------------------
A|-5-5-0-3-5-3-0---------------5-5-0-3-5-3-0-
E|---------------5-5-0-3-5-3-0---------------            
Submit corrections

↑ Back to top | Tablatures and chords for acoustic guitar and electric guitar, ukulele, drums are parodies/interpretations of the original songs. You may use it for private study, scholarship, research or language learning purposes only