Home » S » Soundgarden »

Soundgarden - Fell On Black Days Bass

Artists:  A B C D E F G H I J K L M N O P Q R S T U V W X Y Z # 

Fell On Black Days Bass

(ver. 1) Click to play this song!
Soundgarden
[Verse - 0:15-0:53]

G|---------------------------------------|
D|---------------------------------------|
A|-7~-----------------7~-----------------|
E|-----7-7-7--5-5-5-0-----7-7-7--8-8-8-7-| (x4)

G|----------------------|
D|----------------------|
A|-7~-------------------|
E|-----5-5-5-7-8--8-8-7-|

G|-----------------------------|
D|-----------------------------|
A|-7--7-7-7---7---------5-3-3~-|
E|----------7----7-\5-5--------|


[Chorus - 0:55-1:09]

G|----------------------|
D|----------------------|
A|---9-7---9-7------9-7-|
E|-0-----7-----10-8-----| (x3)

G|-------------------|
D|-------------------|
A|---9-7---9-7-------|
E|-0-----7-----10-8~-|


[Verse - 1:10-1:48]

G|---------------------------------------|
D|---------------------------------------|
A|-7~-----------------7~-----------------|
E|-----7-7-7--5-5-5-0-----7-7-7--8-8-8-7-| (x4)

G|----------------------|
D|----------------------|
A|-7~-------------------|
E|-----5-5-5-7-8--8-8-7-|

G|-----------------------------|
D|-----------------------------|
A|-7--7-7-7---7---------5-3-3~-|
E|----------7----7-\5-5--------|


[Chorus - 1:49-2:03]

G|---------------------------------------|
D|---------------------------------------|
A|-7~-----------------7~-----------------|
E|-----7-7-7--5-5-5-0-----7-7-7--8-8-8-7-|

G|---------------------------------|
D|---------------------------------|
A|-7~-----------------7~-----------|
E|-----7-7-7--5-5-5-0-----7-7-7--8-|


["How would I know" part - 2:04-2:17]

G|------------------------------------------|
D|-7-7-7--9---------------------9-----------|
A|-5-5-5--7--9-9-9--10-10-10-9--7--9-9-9--7-|
E|-----------7-7-7--8--8--8--7-----7-7-7--5-|

G|-------------------------------------------------|
D|-7-7-7--9---------------------9------------------|
A|-5-5-5--7--9-9-9--10-10-10-9--7--9-9-9--7--7-7-7-|
E|-----------7-7-7--8--8--8--7-----7-7-7--5--5-5-5-|


[Guitar solo - 2:18-2:44]

G|-----------------------------------------|
D|------------------·------·------·--------|
A|----7-/11-\5--5-5-5--5-5-5--5-5-5--5-5-5-|
E|-7---------------------------------------| (x3)

G|----------------------------|
D|-----·------·------·--------|
A|-5-5-5--5-5-5--5-5-5--5-5-5-|
E|----------------------------|


[Verse - 2:45-3:39]

G|---------------------------------------|
D|---------------------------------------|
A|-7~-----------------7~-----------------|
E|-----7-7-7--5-5-5-0-----7-7-7--8-8-8-7-| x4

G|-----------------------------|
D|-----------------------------|
A|-7--7-7-7---7---------5-3-3~-|
E|----------7----7-\5-5--------|

G|-----------------------------------------|
D|--------------------------------14---12\-|
A|-7--7-7-7---7---------5-3-3--/12---10----|
E|----------7----7-\5-5--------------------|

G|-----------------------------------------|
D|-----------------------------/14---12----|
A|-7--7-7-7---7---------5-3-3-----12---10\-|
E|----------7----7-\5-5--------------------|

G|-----------------------------|
D|-----------------------------|
A|-7--7-7-7---7---------5-3-3~-|
E|----------7----7-\5-5--------|


[Chorus - 3:40-3:54]

G|----------------------|
D|----------------------|
A|---9-7---9-7------9-7-|
E|-0-----7-----10-8-----| (x3)

G|-------------------|
D|-------------------|
A|---9-7---9-7-------|
E|-0-----7-----10-8~-|


["How would I know" part - 3:55-4:23]

G|------------------------------------------|
D|-7-7-7--9---------------------9-----------|
A|-5-5-5--7--9-9-9--10-10-10-9--7--9-9-9--7-|
E|-----------7-7-7--8--8--8--7-----7-7-7--5-| (x3)

G|-------------------------------------------------|
D|-7-7-7--9---------------------9------------------|
A|-5-5-5--7--9-9-9--10-10-10-9--7--9-9-9--7--7-7-7-|
E|-----------7-7-7--8--8--8--7-----7-7-7--5--5-5-5-|


[Outro - 4:23-4:42]

G|------------------------------|
D|-9--9-9-9----9---------7-5-5~-|
A|-7--7-7-7-9--7-9-\7-7--5-3-3~-|
E|----------7----7-\5-5---------|            
Submit corrections

↑ Back to top | Tablatures and chords for acoustic guitar and electric guitar, ukulele, drums are parodies/interpretations of the original songs. You may use it for private study, scholarship, research or language learning purposes only