» » »

Soulja Boy - Kiss Me Through The Phone Tabs

Artists:  A B C D E F G H I J K L M N O P Q R S T U V W X Y Z # 

Kiss Me Through The Phone Tabs

(ver. 2) Click to play this song!
Soulja Boy
 Rating:
4/5 (5 votes)

 Kiss Me Through The Phone lessons Tabs too difficult? Try these video lessons and learn fast
 
                ----------------------------------------------------------------------------
----------------------------------------------------------------------------


Tuning: Standard

----------------------------------------------------------------------------

Intro:

e|-------------------19--19--17--17--15--14~--|
B|--------------------------------------------|
G|--------------------------------------------|
D|--------------------------------------------|
A|--5----5--5--5--7---------------------------|
E|--3----3--3--3--5---------------------------|

Soulja Boy tell 'em (he sings this just after the last note)

e|-------------------19--19--17--17--15---14--14--12--12--12--12--10--|
B|--------------------------------------------------------------------|
G|--------------------------------------------------------------------|
D|--------------------------------------------------------------------|
A|--5----5--5--5--7---------------------------------------------------|
E|--3----3--3--3--5---------------------------------------------------|


----------------------------------------------------------------------------

Verse chords:
(use up/down picking for the muted parts)

    G              A              Bm             D
e|--3--3--x-x-x-x--5--5--x-x-x-x--2--2--x-x-x-x--5--5--x-x-x-x--|
B|--3--3--x-x-x-x--5--5--x-x-x-x--3--3--x-x-x-x--7--7--x-x-x-x--|
G|--4--4--x-x-x-x--6--6--x-x-x-x--4--4--x-x-x-x--7--7--x-x-x-x--|
D|--5--5--x-x-x-x--7--7--x-x-x-x--4--4--x-x-x-x--7--7--x-x-x-x--|
A|--5--5--x-x-x-x--7--7--x-x-x-x--2--2--x-x-x-x--5--5--x-x-x-x--|
E|--3--3--x-x-x-x--5--5--x-x-x-x--2--2--x-x-x-x--5--5--x-x-x-x--|

G                     A
Baby you know that I miss you
             Bm
I wanna get with you tonight
        D                              G
But I cannot baby girl and thats the issue
                 A
Girl you know I miss you
              Bm
I just wanna kiss you
                   D
But I can't right now so baby


Lead version of verse:
(I have had to remove spaces in the lyrics over the tab so it corresponds to the correct
also I have had to put in only the first letter of some longer words)

    ba- by you knowthat I miss you  I wannaget withyou (t)  But I  can- not
e|--10------10--12--10--12--10------10--12--10--12--10------10--12--10--12--|
B|------12----------------------12----------------------12------------------|
G|--------------------------------------------------------------------------|
D|--------------------------------------------------------------------------|
A|--------------------------------------------------------------------------|
E|--------------------------------------------------------------------------|

  ba- by girl and (t) the iss-ue
--14--15--14--12--10--12--10------| X2 (on second play the lyrics are
------------------------------12--|     different but the rhythm is
----------------------------------|     the same)
----------------------------------|
----------------------------------|
----------------------------------|


----------------------------------------------------------------------------

Chorus:
(use up/down picking for the muted parts)

    G              A              Bm             D
e|--3--3--x-x-x-x--5--5--x-x-x-x--2--2--x-x-x-x--5--5--x-x-x-x--| X2
B|--3--3--x-x-x-x--5--5--x-x-x-x--3--3--x-x-x-x--7--7--x-x-x-x--|
G|--4--4--x-x-x-x--6--6--x-x-x-x--4--4--x-x-x-x--7--7--x-x-x-x--|
D|--5--5--x-x-x-x--7--7--x-x-x-x--4--4--x-x-x-x--7--7--x-x-x-x--|
A|--5--5--x-x-x-x--7--7--x-x-x-x--2--2--x-x-x-x--5--5--x-x-x-x--|
E|--3--3--x-x-x-x--5--5--x-x-x-x--2--2--x-x-x-x--5--5--x-x-x-x--|

                      G
Kiss me through the phone
                      A
Kiss me through the phone
                    Bm
I'll see you later on
                    D
(later on)

                      G
Kiss me through the phone
                      A
Kiss me through the phone
                    Bm
See you when I get home
                    D
(when I home)


----------------------------------------------------------------------------

Second verse:
(use up/down picking for the muted parts)

    G              A              Bm             D
e|--3--3--x-x-x-x--5--5--x-x-x-x--2--2--x-x-x-x--5--5--x-x-x-x--| X2
B|--3--3--x-x-x-x--5--5--x-x-x-x--3--3--x-x-x-x--7--7--x-x-x-x--|
G|--4--4--x-x-x-x--6--6--x-x-x-x--4--4--x-x-x-x--7--7--x-x-x-x--|
D|--5--5--x-x-x-x--7--7--x-x-x-x--4--4--x-x-x-x--7--7--x-x-x-x--|
A|--5--5--x-x-x-x--7--7--x-x-x-x--2--2--x-x-x-x--5--5--x-x-x-x--|
E|--3--3--x-x-x-x--5--5--x-x-x-x--2--2--x-x-x-x--5--5--x-x-x-x--|

G                     A
Baby I know that you like me
               Bm
You my future wifey
                 D
Soulja boy tell 'em, yeah
                G
You can be my Bonnie
                A
I can be your Clyde
                 Bm
You could be my wife
           D
Text me, call me
                  G
I need you in my life
                A
Yeah all day everyday I need ya
      Bm                       D
And every time I see you my feelings get deeper
  G
I miss ya, I miss ya
    A                         Bm
I really wanna kiss you but I can't


e|--19--19--17--17--15---14--14--12--12--12--12--10--|
B|---------------------------------------------------|
G|---------------------------------------------------|
D|---------------------------------------------------|
A|---------------------------------------------------|
E|---------------------------------------------------|

                           D
Six, seven, eight, triple nine, eight, two, one, two


----------------------------------------------------------------------------

Verse chords:
(use up/down picking for the muted parts)

    G              A              Bm             D
e|--3--3--x-x-x-x--5--5--x-x-x-x--2--2--x-x-x-x--5--5--x-x-x-x--|
B|--3--3--x-x-x-x--5--5--x-x-x-x--3--3--x-x-x-x--7--7--x-x-x-x--|
G|--4--4--x-x-x-x--6--6--x-x-x-x--4--4--x-x-x-x--7--7--x-x-x-x--|
D|--5--5--x-x-x-x--7--7--x-x-x-x--4--4--x-x-x-x--7--7--x-x-x-x--|
A|--5--5--x-x-x-x--7--7--x-x-x-x--2--2--x-x-x-x--5--5--x-x-x-x--|
E|--3--3--x-x-x-x--5--5--x-x-x-x--2--2--x-x-x-x--5--5--x-x-x-x--|

G                     A
Baby you know that I miss you
             Bm
I wanna get with you tonight
        D                              G
But I cannot baby girl and thats the issue
                 A
Girl you know I miss you
              Bm
I just wanna kiss you
                   D
But I can't right now so baby


Lead version of verse:
(I have had to remove spaces in the lyrics over the tab so it corresponds to the correct
also I have had to put in only the first letter of some longer words)

    ba- by you knowthat I miss you  I wannaget withyou (t)  But I  can- not
e|--10------10--12--10--12--10------10--12--10--12--10------10--12--10--12--|
B|------12----------------------12----------------------12------------------|
G|--------------------------------------------------------------------------|
D|--------------------------------------------------------------------------|
A|--------------------------------------------------------------------------|
E|--------------------------------------------------------------------------|

  ba- by girl and (t) the iss-ue
--14--15--14--12--10--12--10------| X2 (on second play the lyrics are
------------------------------12--|     different but the rhythm is
----------------------------------|     the same)
----------------------------------|
----------------------------------|
----------------------------------|


----------------------------------------------------------------------------

Chorus:
(use up/down picking for the muted parts)

    G              A              Bm             D
e|--3--3--x-x-x-x--5--5--x-x-x-x--2--2--x-x-x-x--5--5--x-x-x-x--| X2
B|--3--3--x-x-x-x--5--5--x-x-x-x--3--3--x-x-x-x--7--7--x-x-x-x--|
G|--4--4--x-x-x-x--6--6--x-x-x-x--4--4--x-x-x-x--7--7--x-x-x-x--|
D|--5--5--x-x-x-x--7--7--x-x-x-x--4--4--x-x-x-x--7--7--x-x-x-x--|
A|--5--5--x-x-x-x--7--7--x-x-x-x--2--2--x-x-x-x--5--5--x-x-x-x--|
E|--3--3--x-x-x-x--5--5--x-x-x-x--2--2--x-x-x-x--5--5--x-x-x-x--|

                      G
Kiss me through the phone
                      A
Kiss me through the phone
                    Bm
I'll see you later on
                    D
(later on)

                      G
Kiss me through the phone
                      A
Kiss me through the phone
                    Bm
See you when I get home
                    D
(when I home)


----------------------------------------------------------------------------

Third verse:
(use up/down picking for the muted parts)

    G              A              Bm             D
e|--3--3--x-x-x-x--5--5--x-x-x-x--2--2--x-x-x-x--5--5--x-x-x-x--| X2
B|--3--3--x-x-x-x--5--5--x-x-x-x--3--3--x-x-x-x--7--7--x-x-x-x--|
G|--4--4--x-x-x-x--6--6--x-x-x-x--4--4--x-x-x-x--7--7--x-x-x-x--|
D|--5--5--x-x-x-x--7--7--x-x-x-x--4--4--x-x-x-x--7--7--x-x-x-x--|
A|--5--5--x-x-x-x--7--7--x-x-x-x--2--2--x-x-x-x--5--5--x-x-x-x--|
E|--3--3--x-x-x-x--5--5--x-x-x-x--2--2--x-x-x-x--5--5--x-x-x-x--|

G                      A             Bm
Baby I been thinking lately so much about you
            D                       G
Everything about you, I like it, I love it
                 A                      Bm
Kissing you in public, thinking nothing of it
               D                    G
Roses by the dozen, talking on the phone
             A                      Bm
Baby you so sexy, your voice is so lovely
             D                        G
I love your complexion, I miss ya, I miss ya, I miss ya
    A                          Bm
I really wanna kiss you but I can't


e|--19--19--17--17--15---14--14--12--12--12--12--10--|
B|---------------------------------------------------|
G|---------------------------------------------------|
D|---------------------------------------------------|
A|---------------------------------------------------|
E|---------------------------------------------------|

                           D
Six, seven, eight, triple nine, eight, two, one, two


----------------------------------------------------------------------------

Verse chords:
(use up/down picking for the muted parts)

    G              A              Bm             D
e|--3--3--x-x-x-x--5--5--x-x-x-x--2--2--x-x-x-x--5--5--x-x-x-x--|
B|--3--3--x-x-x-x--5--5--x-x-x-x--3--3--x-x-x-x--7--7--x-x-x-x--|
G|--4--4--x-x-x-x--6--6--x-x-x-x--4--4--x-x-x-x--7--7--x-x-x-x--|
D|--5--5--x-x-x-x--7--7--x-x-x-x--4--4--x-x-x-x--7--7--x-x-x-x--|
A|--5--5--x-x-x-x--7--7--x-x-x-x--2--2--x-x-x-x--5--5--x-x-x-x--|
E|--3--3--x-x-x-x--5--5--x-x-x-x--2--2--x-x-x-x--5--5--x-x-x-x--|

G                     A
Baby you know that I miss you
             Bm
I wanna get with you tonight
        D                              G
But I cannot baby girl and thats the issue
                 A
Girl you know I miss you
              Bm
I just wanna kiss you
                   D
But I can't right now so baby


Lead version of verse:
(I have had to remove spaces in the lyrics over the tab so it corresponds to the correct
also I have had to put in only the first letter of some longer words)

    ba- by you knowthat I miss you  I wannaget withyou (t)  But I  can- not
e|--10------10--12--10--12--10------10--12--10--12--10------10--12--10--12--|
B|------12----------------------12----------------------12------------------|
G|--------------------------------------------------------------------------|
D|--------------------------------------------------------------------------|
A|--------------------------------------------------------------------------|
E|--------------------------------------------------------------------------|

  ba- by girl and (t) the iss-ue
--14--15--14--12--10--12--10------| X2 (on second play the lyrics are
------------------------------12--|     different but the rhythm is
----------------------------------|     the same)
----------------------------------|
----------------------------------|
----------------------------------|


----------------------------------------------------------------------------

Chorus:
(use up/down picking for the muted parts)

    G              A              Bm             D
e|--3--3--x-x-x-x--5--5--x-x-x-x--2--2--x-x-x-x--5--5--x-x-x-x--| X2
B|--3--3--x-x-x-x--5--5--x-x-x-x--3--3--x-x-x-x--7--7--x-x-x-x--|
G|--4--4--x-x-x-x--6--6--x-x-x-x--4--4--x-x-x-x--7--7--x-x-x-x--|
D|--5--5--x-x-x-x--7--7--x-x-x-x--4--4--x-x-x-x--7--7--x-x-x-x--|
A|--5--5--x-x-x-x--7--7--x-x-x-x--2--2--x-x-x-x--5--5--x-x-x-x--|
E|--3--3--x-x-x-x--5--5--x-x-x-x--2--2--x-x-x-x--5--5--x-x-x-x--|

                      G
Kiss me through the phone
                      A
Kiss me through the phone
                    Bm
I'll see you later on
                    D
(later on)

                      G
Kiss me through the phone
                      A
Kiss me through the phone
                    Bm
See you when I get home
                    D
(when I home)

----------------------------------------------------------------------------


Fourth Verse:
(he sings, "she call my phone like" before the start of this part)


    da- da  da  da  da  da  da- da  da  da  da  da  da- da  da  da  da  da
e|--10------10--12--10--12--10------10--12--10--12--10------10--12--10--12--|
B|------12----------------------12----------------------12------------------|
G|--------------------------------------------------------------------------|
D|--------------------------------------------------------------------------|
A|--------------------------------------------------------------------------|
E|--------------------------------------------------------------------------|

  da  da,  we on the phone- like
--14--15--14--12--10--12--10------|
------------------------------12--|
----------------------------------|
----------------------------------|
----------------------------------|
----------------------------------|


    da- da  da  da  da  da  da- da  da  da  da  da  da- da  da  da  da  da
e|--10------10--12--10--12--10------10--12--10--12--10------10--12--10--12--|
B|------12----------------------12----------------------12------------------|
G|--------------------------------------------------------------------------|
D|--------------------------------------------------------------------------|
A|--------------------------------------------------------------------------|
E|--------------------------------------------------------------------------|

  da  da,  we takin pics- like
--14--15--14--12--10--12--10------|
------------------------------12--|
----------------------------------|
----------------------------------|
----------------------------------|
----------------------------------|


    da- da  da  da  da  da  da- da  da  da  da  da  da- da  da  da  da  da
e|--10------10--12--10--12--10------10--12--10--12--10------10--12--10--12--|
B|------12----------------------12----------------------12------------------|
G|--------------------------------------------------------------------------|
D|--------------------------------------------------------------------------|
A|--------------------------------------------------------------------------|
E|--------------------------------------------------------------------------|

  da  da, she dial my number- like
--14--15--14--12--10--12--10------|
------------------------------12--|
----------------------------------|
----------------------------------|
----------------------------------|
----------------------------------|


    da- da  da  da  da  da  da- da  da  da  da  da  da- da  da  da  da  da
e|--10------10--12--10--12--10------10--12--10--12--10------10--12--10--12--|
B|------12----------------------12----------------------12------------------|
G|--------------------------------------------------------------------------|
D|--------------------------------------------------------------------------|
A|--------------------------------------------------------------------------|
E|--------------------------------------------------------------------------|

  da  da
--14--15--|
----------|
----------|
----------|
----------|
----------|


e|--19--19--17--17--15---14--14--12--12--12--12--10--|
B|---------------------------------------------------|
G|---------------------------------------------------|
D|---------------------------------------------------|
A|---------------------------------------------------|
E|---------------------------------------------------|

                           D
Six, seven, eight, triple nine, eight, two, one, two


----------------------------------------------------------------------------

Verse chords:
(use up/down picking for the muted parts)

    G              A              Bm             D
e|--3--3--x-x-x-x--5--5--x-x-x-x--2--2--x-x-x-x--5--5--x-x-x-x--|
B|--3--3--x-x-x-x--5--5--x-x-x-x--3--3--x-x-x-x--7--7--x-x-x-x--|
G|--4--4--x-x-x-x--6--6--x-x-x-x--4--4--x-x-x-x--7--7--x-x-x-x--|
D|--5--5--x-x-x-x--7--7--x-x-x-x--4--4--x-x-x-x--7--7--x-x-x-x--|
A|--5--5--x-x-x-x--7--7--x-x-x-x--2--2--x-x-x-x--5--5--x-x-x-x--|
E|--3--3--x-x-x-x--5--5--x-x-x-x--2--2--x-x-x-x--5--5--x-x-x-x--|

G                     A
Baby you know that I miss you
             Bm
I wanna get with you tonight
        D                              G
But I cannot baby girl and thats the issue
                 A
Girl you know I miss you
              Bm
I just wanna kiss you
                   D
But I can't right now so baby


Lead version of verse:
(I have had to remove spaces in the lyrics over the tab so it corresponds to the correct
also I have had to put in only the first letter of some longer words)

    ba- by you knowthat I miss you  I wannaget withyou (t)  But I  can- not
e|--10------10--12--10--12--10------10--12--10--12--10------10--12--10--12--|
B|------12----------------------12----------------------12------------------|
G|--------------------------------------------------------------------------|
D|--------------------------------------------------------------------------|
A|--------------------------------------------------------------------------|
E|--------------------------------------------------------------------------|

  ba- by girl and (t) the iss-ue
--14--15--14--12--10--12--10------| X2 (on second play the lyrics are
------------------------------12--|     different but the rhythm is
----------------------------------|     the same)
----------------------------------|
----------------------------------|
----------------------------------|


----------------------------------------------------------------------------

Chorus:
(use up/down picking for the muted parts)

    G              A              Bm             D
e|--3--3--x-x-x-x--5--5--x-x-x-x--2--2--x-x-x-x--5--5--x-x-x-x--| X2
B|--3--3--x-x-x-x--5--5--x-x-x-x--3--3--x-x-x-x--7--7--x-x-x-x--|
G|--4--4--x-x-x-x--6--6--x-x-x-x--4--4--x-x-x-x--7--7--x-x-x-x--|
D|--5--5--x-x-x-x--7--7--x-x-x-x--4--4--x-x-x-x--7--7--x-x-x-x--|
A|--5--5--x-x-x-x--7--7--x-x-x-x--2--2--x-x-x-x--5--5--x-x-x-x--|
E|--3--3--x-x-x-x--5--5--x-x-x-x--2--2--x-x-x-x--5--5--x-x-x-x--|

                      G
Kiss me through the phone
                      A
Kiss me through the phone
                    Bm
I'll see you later on
                    D
(later on)

                      G
Kiss me through the phone
                      A
Kiss me through the phone
                    Bm
See you when I get home
                    D
(when I home)


----------------------------------------------------------------------------


Please rate
thanks
            
Submit corrections


        Kiss Me Through The Phone lessons Hard to play? Try these video lessons and learn fast Kiss Me Through The Phone lessons
        
↑ Back to top | Tablatures and chords for acoustic guitar and electric guitar, ukulele, drums are parodies/interpretations of the original songs. You may use it for private study, scholarship, research or language learning purposes only