Home » S » Sons And Daughters »

Sons And Daughters - Johnny Cash Tabs

Artists:  A B C D E F G H I J K L M N O P Q R S T U V W X Y Z # 

Johnny Cash Tabs

(ver. 1) Click to play this song!
Sons And Daughters

e----------------------------------|
B----------------------------------|
G----------------------------------|
D----------------------------------|
A--5-5-5-5-8--5-5-5-5-3--5-5-5-5-5-|
D--0-0-0-0-0--0-0-0-0-0--0-0-0-0-0-|

e-----------------------------------------------------|
B-----------------------------------------------------|
G-----------------------------------------------------|
D-----------------------------------------------------|
A-5-5-5-5-8-10-12-10-8-5-5-5-5-8-10-12-10-8-5-5-5-5-3-|
D-0-0-0-0-0--0--0--0-0-0-0-0-0-0--0--0--0-0-0-0-0-0-0-|

then :

muted
e-----|
B-----|
G-----|
D-----|
A--5--|
D--0--|

chorus (not too sure about this but it sounds close)

e------------------------------------------------------------|
B----------------------3-3-3-3-3-3-3-3-----------------------|
G----------------------2-2-2-2-2-2-2-2-----------------------|
D--0-0-0-0-0-0-0-0--0-0-0-0-0-0-0-0-----3-3-3-3-3-3-3-3------|
A--3-3-3-3-3-3-3-3--------------------------3-3-3-3-3-3-3-3--|
D--3-3-3-3-3-3-3-3--------------------------0-0-0-0-0-0-0-0--|
            
Submit corrections

↑ Back to top | Tablatures and chords for acoustic guitar and electric guitar, ukulele, drums are parodies/interpretations of the original songs. You may use it for private study, scholarship, research or language learning purposes only