Home » S » Sons And Daughters »

Sons And Daughters - Johnny Cash Bass

Artists:  A B C D E F G H I J K L M N O P Q R S T U V W X Y Z # 

Johnny Cash Bass

(ver. 1) Click to play this song!
Sons And Daughters
Verse
G-----------------|
D-----------------|
A-5-5-5-5-5-5-5-5-|
E-----------------|Remains constant

Pre-Chorus
G--------------------|
D---------3----------|
A-5-5-5-5--5-5-5-5-3-|
E--------------------|


Chorus
G---------------------------------------------------------------------------|
D-----------------------3--------------------------------------3------------|
A--------------5-5-5-5---5-5-5-5-3--------------------5-5-5-5---5-5-5-5-5-3-|
E-3-3-3-3-3-3-3----------------------3-3-3-3-3-3-3-3-3----------------------|

G---------------------------------------------------------------------|
D-----------------------3---------------------------------------------|
A---------------5-5-5-5---5-5-5-3-------------------3-3-3-3-3-3-3-3-5-|
E-3-3-3-3-3-3-3-------------------3-3-3-3-3-3-3-3-3-------------------|
            
Submit corrections

↑ Back to top | Tablatures and chords for acoustic guitar and electric guitar, ukulele, drums are parodies/interpretations of the original songs. You may use it for private study, scholarship, research or language learning purposes only