» » »

Something Corporate - If U C Jordan Tabs

Artists:  A B C D E F G H I J K L M N O P Q R S T U V W X Y Z # 

If U C Jordan Tabs

(ver. 1) Click to play this song!
Something Corporate
 Rating:
4/5 (4 votes)

 If U C Jordan lessons Tabs too difficult? Try these video lessons and learn fast
 
                Tuning Drop D (D-A-D-G-B-E)

Key
.. = Palm Mute
/ = slide
h = hammer-on
B = bend
R = release

Intro 2x

E|-----------------------------------------------------------------------------
B|-----------------------------------------------------------------------------
G|---------------------------------------------------------11-11-11--10-10-10--
D|---6-6-6-6-6-6---10-10-10-10-10-10---13-13-13-13-13-13---11-11-11--10-10-10--
A|---6-6-6-6-6-6---10-10-10-10-10-10---13-13-13-13-13-13----9--9--9--8--8--8-
D|---6-6-6-6-6-6---10-10-10-10-10-10---13-13-13-13-13-13-----------------------

Play twice
E|-------------------------------------
B|-------------------------------------
G|------8-7-6-5--5h6/11---11/18-18-----
D|---6---------------------------------
A|-------------------------------------
D|-------------------------------------

Verse 2x
E|---------------------------
B|---------------------------
G|--11-11-11--10-10-10-------
D|--11-11-11--10-10-10-------
A|--9--9--9----8--8--8-------
D|---------------------------

After you play the verse the second time, play this palm-muted…
E|-----------------------------------------------------------------------------
B|-----------------------------------------------------------------------------
G|--------------------------------------------------------11-11-11--10-10-10---
D|---6-6-6-6-6-6---10-10-10-10-10-10---13-13-13-13-13-13--11-11-11--10-10-10---
A|---6-6-6-6-6-6---10-10-10-10-10-10---13-13-13-13-13-13--9--9--9---8--8--8----
D|---6-6-6-6-6-6---10-10-10-10-10-10---13-13-13-13-13-13-----------------------
     . . . . . .   .. .. .. .. .. ..   .. .. .. .. .. ..  .. .. ..  .. .. ..
Chorus – Play intro 3x, then just play this a bunch of times
E|-----------------
B|-----------------
G|-----------------
D|---6-6-6-6-6-6---
A|---6-6-6-6-6-6---
D|---6-6-6-6-6-6---

Play verse again, then chorus

Solo
E|------------------------------------------------------------
B|------------6------------------------6-6--------------------
G|--------5-8---8---5-6-5---------5-8------8--5-6-5-5/13------
D|---6-8------------------6---6-8-----------------------------
A|------------------------------------------------------------
D|------------------------------------------------------------
    
E|-------------------------------------------------------------
B|--------13-16-16-16-16-14-13----14-14-14-14-13-11---11-13-9--
G|--13-15------------------------------------------------------
D|-------------------------------------------------------------
A|-------------------------------------------------------------
D|-------------------------------------------------------------
This part isn’t right, but sounds close ^^^^^^^^^
E|-------------------------------------------------------------
B|--------13-16-16-16-16-14-13---14-14-14-14-13-11---11-13-----
G|--13-15--------------------------------------------------10--
D|-------------------------------------------------------------
A|-------------------------------------------------------------
D|-------------------------------------------------------------

Play the verse again, and one of the times they play this
E|-----------------
B|---11h13--9------
G|-----------------
D|-----------------
A|-----------------
D|-----------------

Play the chorus 3 more times with this instead
E|----------------------------------------------------------
B|----------------------------------------------------------
G|----13------------12------------11------------10------
D|----------------------------------------------------------
A|----------------------------------------------------------
D|----------------------------------------------------------

On the second time you play the chorus it’s a little different..
E|----------------------------------------------------------
B|----------------------------------------------------------
G|---13-------------12------------11B(13)R11---------------
D|----------------------------------------------------------
A|----------------------------------------------------------
D|----------------------------------------------------------

End with this
E|-----------
B|-----------
G|-----------
D|-----6-----
A|-----6-----
D|-----6-----
            
Submit corrections


        If U C Jordan lessons Hard to play? Try these video lessons and learn fast If U C Jordan lessons
        
↑ Back to top | Tablatures and chords for acoustic guitar and electric guitar, ukulele, drums are parodies/interpretations of the original songs. You may use it for private study, scholarship, research or language learning purposes only