Home » S » Something Corporate »

Something Corporate - Cavanaugh Park Tabs

Artists:  A B C D E F G H I J K L M N O P Q R S T U V W X Y Z # 

Cavanaugh Park Tabs

(ver. 1) Click to play this song!
Something Corporate
 Rating:
4/5 (4 votes)
                Tuning : EADGBE (Standard)

Intro (Guitar 1):
e|-----------------------------------------------------------------|
B|-----------------------------------------------------------------|
G|--4---4-----4-----4---4------------------------------------------|
D|--4---4---4---4---4---4------------------------------------------|
A|--2---2-----------2---2------------------------------------------|
E|------0---------------0------------------------------------------|

Verse (Guitar 1):
e|-----------------------------------------------------------------|
B|-----------------------------------------------------------------|
G|--4---4---4------------------------------------------------------|
D|--4---4---4---4--------------------------------------------------|
A|--2---2---2---4--------------------------------------------------|
E|------0-------2--------------------------------------------------|

Verse (Guitar 2):
e|-----------------------------------------------------------------|
B|-----------------------------------------------------------------|
G|--11-9-8----11-9-8----------------------11-9-8-------------------|
D|---------9~--------11/13-11-9----9/11-9--------11~---------------|
A|------------------------------11---------------------------------|
E|-----------------------------------------------------------------|

Part right before chorus (Guitar 2):
e|-----------------------------------------------------------------|
B|-----------------------------------------------------------------|
G|--8—-8--8--9--9--9--8--8--8--11-11-11----------------------------|
D|----9--9--9--9--9--9--9--9--9--9--9—-9---------------------------|
A|-----------------------------------------------------------------|
E|-----------------------------------------------------------------|
*Listen carefully for the guitar 2 parts...they're difficult to hear
*but they're there.

Chorus (Guitar 1):
e|-----------------------------------------------------------------|
B|-----------------------------------------------------------------|
G|-4-----------8---------------------------------------------------|
D|-4---4---6---8---2---2---4---4-----------------------------------|
A|-2---4---6---6---2---2---4---4-----------------------------------|
E|-----2---4-------0---0---2---2-----------------------------------|

*Listen to the song for the strumming patterns,breaks,and order. It's
*really easy. Enjoy:-).
*
*
***OsRitmos***
            
Submit corrections

↑ Back to top | Tablatures and chords for acoustic guitar and electric guitar, ukulele, drums are parodies/interpretations of the original songs. You may use it for private study, scholarship, research or language learning purposes only