» » »

Something Corporate - Fall Tabs

Artists:  A B C D E F G H I J K L M N O P Q R S T U V W X Y Z # 

Fall Tabs

(ver. 3) Click to play this song!
Something Corporate
 Rating:
4/5 (4 votes)

 Fall lessons Tabs too difficult? Try these video lessons and learn fast
 
                Something Corporate - Fall "Leaving Through The Window" 
This song is really kool and really easy to play..enjoy!-Ed 

PM. =Palm mute / =Bend ~ =Let Ring 

Standrd Tuning (E,A,D,g,b,e) 

Hey to nfgqueen 14 I hope this is good enough for you..while your at S.C.'s 
show. 

Verse's 1 and 2 (2nd Guitar) 
e|-----------------------------------------------------| 
B|-----------------------------------------------------| 
G|--44-44-4444-----------------------------44-44-4444--| 
D|--44-44-4444---44-44-4444---66-66-6666---44-44-4444--| 
A|--22-22-2222---44-44-4444---66-66-6666---22-22-2222--| 
E|---------------22-22-2222---44-44-4444---------------| 

Verse 1 (1st Guitar) 
After about two times of the 2nd guitar playing the above, the 1st guitar comes 
in with this.. 
e|----------------------------------| 
B|----------------------------------| 
G|--4~~~~-----------------4~~~~-----| 
D|---------4~~~~---6~~~~------------| 
A|----------------------------------| 
E|----------------------------------| 

Pre-Chrous (1st Guitar) -Palm-mutes all- 
e|--------------------------------------------| 
B|--------------------------------------------| 
G|--44444444-------------------------44444444-| 
D|--44444444---44444444---66666666---44444444-| 
A|--22222222---44444444---66666666---22222222-| 
E|-------------22222222---44444444------------| 

2nd Guitar- (No Palm-mutes) 
e|--------------------------------------------| 
B|--------------------------------------------| 
G|--44444444-------------------------44444444-| 
D|--44444444---44444444---66666666---44444444-| 
A|--22222222---44444444---66666666---22222222-| 
E|-------------22222222---44444444------------| 

Chorus's 1 & 2 (1st Guitar) 
e|------------------------------------------------| 
B|------------------------------------------------| 
G|--44-------44-----------------------------------| 
D|--44-------44---44--66--44---222--22--2---66666-| x2 
A|--22--4-4--22---44--66--44---222--22--2---66666-| 
E|----------------22--44--22---000--22--0---44444-| 

Chorus's 1 & 2 (2d Guitar) 
e|------------------------------------| 
B|------------------------------------| 
G|--444444----------------------------| 
D|--444444---444444---222222---666666-| 
A|--222222---444444---222222---666666-| 
E|-----------222222---000000---444444-| 

Verse 2 (1st Guitar) 
e|--------------------------------------------| 
B|--------------------------------------------| 
G|--------------------------------------------| 
D|--------------------------------------------| 
A|--22222222-------------------------22222222-| 
E|-------------22222222---44444444------------| 

Bridge (1st Guitar) 
e|---------------------------------| 
B|---------------------------------| 
G|---------------------444444444---| x3 
D|--6666666666666------444444444---| 
A|--6666666666666------222222222---| 
E|--4444444444444--6/--------------| 
PM............. 

Bridge (2nd Guitar) 
e|----------------------------| 
B|-------------------4~~~~~~~~| 
G|--4---4---4---4-------------| 
D|----8---8---8---8-----------| x4 
A|----------------------------| 
E|----------------------------| 


The End is as same as the chorus. 

Well there you go, I hope it is right & it is good enough for you, cya. 

-Ed
            
Submit corrections


        Fall lessons Hard to play? Try these video lessons and learn fast Fall lessons
        
↑ Back to top | Tablatures and chords for acoustic guitar and electric guitar, ukulele, drums are parodies/interpretations of the original songs. You may use it for private study, scholarship, research or language learning purposes only