Home » S » Something Corporate »

Something Corporate - Drunk Girl Bass

Artists:  A B C D E F G H I J K L M N O P Q R S T U V W X Y Z # 

Drunk Girl Bass

(ver. 2) Click to play this song!
Something Corporate
 Rating:
4/5 (4 votes)
                numbers in brackets)= optional notes/ every once and a while


main riff
G-----------------------------|
D-----------------------------|
A-----2-2/10-7-7-3-3-(2)------|
E-3-3 ------------------------|

Or if you feel more comfortable like this

G---------------------------|
D----------/5-3-3-----------|
A-----2-2---------3-3 (2)---|
E-3-3-----------------------|

Bridge

G----------------|
D----------------|
A----3-3---------|
E-5-5----3-3-3-3-|

You’ve of had your fun .
1234 1234 /15 ?-just to give and idea of when to slide
G---------------------------|
D---------------------------|
A-3-3-3-3-3-3------/15<-----|let ring then back to the main riff
E---------------------------|

thats it have fun
            
Submit corrections

↑ Back to top | Tablatures and chords for acoustic guitar and electric guitar, ukulele, drums are parodies/interpretations of the original songs. You may use it for private study, scholarship, research or language learning purposes only