Home » S » Soja »

Soja - Here I Am Tabs

Artists:  A B C D E F G H I J K L M N O P Q R S T U V W X Y Z # 

Here I Am Tabs

(ver. 4) Click to play this song!
Soja
[Intro 0:00-0:25]
e|------------------|---------------------|
B|------------------|---7-----------7-----|
G|---7--7-7-7h9-7---|--7--7--7-7-7h9--7-6-|
D|-9---9----------9-|-9-----7-------------|
A|------------------|---------------------|
E|------------------|---------------------|
     x xx x   x x x xxx x xx x   xx x x    
e|-----------------|----------------------|
B|----------10-8---|---7------------7-----|
G|---7--7-7------7-|--7--7--7-7-7h9---7-6-|
D|-9---9-----------|-9-----7--------------|
A|-----------------|----------------------|
E|-----------------|----------------------|
     x xx x x  x x xxx x xx x   x x x x
e|------------------|---------------------|
B|------------------|---7-----------7-----|
G|---7--7-7-7h9-7---|--7--7--7-7-7h9--7-6-|
D|-9---9----------9-|-9-----7-------------|
A|------------------|---------------------|
E|------------------|---------------------|
     x xx x   x x x xxx x xx x   xx x x    
e|-----------------|----------------------|
B|----------10-8---|---7------------------|
G|---7--7-7------7-|--7--7--7-7-7h9-----6-|
D|-9---9-----------|-9-----7--------------|
A|-----------------|----------------------|
E|-----------------|----------------------|
     x xx x x  x x xxx x xx x         

[Chorus 0:26-0:51]
Em                    G
She calls me when I'm in town
D                A
I pretend I'm not around
    Em                    G
But she sees on her screen I am
   D          A
So here I am, here I am
Em                   G
She don't call me one and only
    D
No, she just calls me when
   A
She gets lonely
Em                    G
Something I do that gets her there
    D           A
So feel better, and get well

[Verse 1 0:52-1:17]
Em                      G
    There's no love without this pain
D                  A
    There's no one time without again
Em                 G
    And there's no way that I am
D        A
What she need's now
Em             G
    I'm just a passing glance
D         A
Not a for sure but a chance
Em                 G
    And there's no way that I am
D        A
What she sees now

[Chorus 1:18-1:43]
Em                    G
She calls me when I'm in town
D                A
I pretend I'm not around
    Em                    G
But she sees on her screen I am
   D          A
So here I am, here I am
Em                   G
She don't call me one and only
    D
No, she just calls me when
   A
She gets lonely
Em                    G
Something I do that gets her there
    D           A
So feel better, and get well

[Verse 2 1:44-2:08]
Em                   G
Backwards now, we're back again
D               A
Sideway just to find our friends
Em                 G
On this road is changing every
D       A
Thing I know now
Em            G
upside down inside my head
D                     A
Let's just talk about something else
Em                    G             D        A
The sun gets brighter and takes me along

[Chorus 2:09-2:35]
Em                    G
She calls me when I'm in town
D                A
I pretend I'm not around
    Em                    G
But she sees on her screen I am
   D          A
So here I am, here I am
              x
Em                   G
She don't call me one and only
    D
No, she just calls me when
   A
She gets lonely
Em                    G
Something I do that gets her there
    D           A
So feel better, and get well

[Bridge 2:36-3:01]
e|------------------|---------------------|
B|------------------|---7-----------7-----|
G|---7--7-7-7h9-7---|--7--7--7-7-7h9--7-6-|
D|-9---9----------9-|-9-----7-------------|
A|------------------|---------------------|
E|------------------|---------------------|
     x xx x   x x x xxx x xx x   xx x x    

e|-----------------|----------------------|
B|----------10-8---|---7------------7-----|
G|---7--7-7------7-|--7--7--7-7-7h9---7-6-|
D|-9---9-----------|-9-----7--------------|
A|-----------------|----------------------|
E|-----------------|----------------------|
     x xx x x  x x xxx x xx x   x x x x

e|------------------|---------------------|
B|------------------|---7-----------7-----|
G|---7--7-7-7h9-7---|--7--7--7-7-7h9--7-6-|
D|-9---9----------9-|-9-----7-------------|
A|------------------|---------------------|
E|------------------|---------------------|
     x xx x   x x x xxx x xx x   xx x x    

e|-----------------|----------------------|
B|----------10-8---|---7------------------|
G|---7--7-7------7-|--7--7--7-7-7h9-----6-|
D|-9---9-----------|-9-----7--------------|
A|-----------------|----------------------|
E|-----------------|----------------------|
     x xx x x  x x xxx x xx x         

[Verse 3 3:02-3:26]
Em                G
Oh these curtains never close
D                      A
    There's only one way that this goes
Em             G
    We turn in circles and we
D        A
Lose our places
x        x
Em         G
    New faces around but
D             A             Em
    No replacements I've found
Em         G
    Can we just find a way to
D       A
Go back home now

[Chorus 3:27-3:52]
Em                    G
She calls me when I'm in town
D                A
I pretend I'm not around
    Em                    G
But she sees on her screen I am
   D          A
So here I am, here I am
   x          x
Em                   G
She don't call me one and only
    D
No, she just calls me when
   A
She gets lonely
Em                    G
Something I do that gets her there

[Another bridge? 3:53-4:18]
    D           A
So feel better, and get well
Em                G          D
    Don't call me one and only
D                 A
Just call me when you get lonely
Em                 G
    Something that gets her there
D                   A
    So feel better, and get well
Em                G          D
    Don't call me one and only
D                 A
Just call me when you get lonely
Em                 G
    Something that gets her there
D                   A
    So feel better, and get well

[Outro 4:20-4:48]
e|------------------|---------------------|
B|------------------|---7-----------7-----|
G|---7--7-7-7h9-7---|--7--7--7-7-7h9--7-6-|
D|-9---9----------9-|-9-----7-------------|
A|------------------|---------------------|
E|------------------|---------------------|
     x xx x   x x x xxx x xx x   xx x x   
 
e|-----------------|----------------------|
B|----------10-8---|---7------------7-----|
G|---7--7-7------7-|--7--7--7-7-7h9---7-6-|
D|-9---9-----------|-9-----7--------------|
A|-----------------|----------------------|
E|-----------------|----------------------|
     x xx x x  x x xxx x xx x   x x x x

e|------------------|---------------------|
B|------------------|---7-----------7-----|
G|---7--7-7-7h9-7---|--7--7--7-7-7h9--7-6-|
D|-9---9----------9-|-9-----7-------------|
A|------------------|---------------------|
E|------------------|---------------------|
     x xx x   x x x xxx x xx x   xx x x    

e|-----------------|---------------------------|
B|----------10-8---|---7-----------------------|
G|---7--7-7------7-|--7--7--7-9h11p9-7h9p7-6-7-|
D|-9---9-----------|-9-----7-------------------|
A|-----------------|---------------------------|
E|-----------------|---------------------------|
     x xx x x  x x xxx x xx            
Submit corrections

↑ Back to top | Tablatures and chords for acoustic guitar and electric guitar, ukulele, drums are parodies/interpretations of the original songs. You may use it for private study, scholarship, research or language learning purposes only