» » »

Social Distortion - Ring Of Fire Tabs

Artists:  A B C D E F G H I J K L M N O P Q R S T U V W X Y Z # 

Ring Of Fire Tabs

(ver. 4) Click to play this song!
Social Distortion
 Rating:
4.3/5 (23 votes)

 Ring Of Fire lessons Tabs too difficult? Try these video lessons and learn fast
 
                Intro}
e|-----------------------------|
B|-----------------------------|
G|---3-3-3-3-3-3-3-3-3-3-3-3---|
D|---3-3-3-3-3-3-3-3-3-3-3-3---| PM
A|---1-1-1-1-1-1-1-1-1-1-1-1---|
E|-----------------------------|

e|---------------------------------------------------------------|
B|---------------------------------------------------------------|
G|---------------------------------------------------------------|
D|---------------------------------------------------------------| 2x
A|---8-8-8-8-8-8-8-10-6-8-8-8-8--8/5-5-5-5-5-5-5-6-3-5-5-5-5-5~/-|
E|---------------------------------------------------------------|


[Verse 1] 2x
e|-----------------------------------------------|
B|-----------------------------------------------|
G|---3-3-3-3-3-3-3-3--8-8--3-3-3-3-3-3-3-3-3-3---|
D|---3-3-3-3-3-3-3-3--8-8--3-3-3-3-3-3-3-3-3-3---|
A|---1-1-1-1-1-1-1-1--6-6--1-1-1-1-1-1-1-1-1-1---|
E|-----------------------------------------------|

e|-----------------------------------------------|
B|-----------------------------------------------|
G|---3-3-3-3-3-3-3-3-------3-3-3-3-3-3-3-3-3-3---|
D|---3-3-3-3-3-3-3-3--3-3--3-3-3-3-3-3-3-3-3-3---|
A|---1-1-1-1-1-1-1-1--3-3--1-1-1-1-1-1-1-1-1-1---|
E|--------------------1-1------------------------|


[Walk-down]
e|-------------|
B|------2------|
G|---3--2------|
D|---3--2--5---|
A|---1-----5---|
E|---------3---|


[Chorus]
e|-------------------------------------------|
B|-------------------------------------------|
G|------------------------8-8-8-8--3-3-3-3---|
D|---3-3-3-3-3-3-3-3-3-3--8-8-8-8--3-3-3-3---|
A|---3-3-3-3-3-3-3-3-3-3--6-6-6-6--1-1-1-1---|
E|---1-1-1-1-1-1-1-1-1-1---------------------|

e|-----------------------------------------------------|
B|-----------------------------------------------------|
G|---10-10-10-10-10-10-10-10-10-10--8-8-8-8--3-3-3-3---|
D|---10-10-10-10-10-10-10-10-10-10--8-8-8-8--3-3-3-3---|
A|---8--8--8--8--8--8--8--8--8--8---6-6-6-6--1-1-1-1---|
E|-----------------------------------------------------|

e|---------------------------------------------------------------------|
B|---------------------------------------------------------------------|
G|---3-3-3-3-3-3-3-3-3-3--8-8--3-3-3-3-3-3-3-3-------3-3-3-3-3-3-3-3---|
D|---3-3-3-3-3-3-3-3-3-3--8-8--3-3-3-3-3-3-3-3--3-3--3-3-3-3-3-3-3-3---|
A|---1-1-1-1-1-1-1-1-1-1--6-6--1-1-1-1-1-1-1-1--3-3--1-1-1-1-1-1-1-1---|
E|----------------------------------------------1-1--------------------|


[Verse 2] 2x
e|-----------------------------------------------|
B|-----------------------------------------------|
G|---3-3-3-3-3-3-3-3--8-8--3-3-3-3-3-3-3-3-3-3---|
D|---3-3-3-3-3-3-3-3--8-8--3-3-3-3-3-3-3-3-3-3---|
A|---1-1-1-1-1-1-1-1--6-6--1-1-1-1-1-1-1-1-1-1---|
E|-----------------------------------------------|

e|-----------------------------------------------|
B|-----------------------------------------------|
G|---3-3-3-3-3-3-3-3-------3-3-3-3-3-3-3-3-3-3---|
D|---3-3-3-3-3-3-3-3--3-3--3-3-3-3-3-3-3-3-3-3---|
A|---1-1-1-1-1-1-1-1--3-3--1-1-1-1-1-1-1-1-1-1---|
E|--------------------1-1------------------------|


[Walk-down]
e|-------------|
B|------2------|
G|---3--2------|
D|---3--2--5---|
A|---1-----5---|
E|---------3---|


[Chorus]
e|-------------------------------------------|
B|-------------------------------------------|
G|------------------------8-8-8-8--3-3-3-3---|
D|---3-3-3-3-3-3-3-3-3-3--8-8-8-8--3-3-3-3---|
A|---3-3-3-3-3-3-3-3-3-3--6-6-6-6--1-1-1-1---|
E|---1-1-1-1-1-1-1-1-1-1---------------------|

e|-----------------------------------------------------|
B|-----------------------------------------------------|
G|---10-10-10-10-10-10-10-10-10-10--8-8-8-8--3-3-3-3---|
D|---10-10-10-10-10-10-10-10-10-10--8-8-8-8--3-3-3-3---|
A|---8--8--8--8--8--8--8--8--8--8---6-6-6-6--1-1-1-1---|
E|-----------------------------------------------------|

e|---------------------------------------------------------------------|
B|---------------------------------------------------------------------|
G|---3-3-3-3-3-3-3-3-3-3--8-8--3-3-3-3-3-3-3-3-------3-3-3-3-3-3-3-3---|
D|---3-3-3-3-3-3-3-3-3-3--8-8--3-3-3-3-3-3-3-3--3-3--3-3-3-3-3-3-3-3---|
A|---1-1-1-1-1-1-1-1-1-1--6-6--1-1-1-1-1-1-1-1--3-3--1-1-1-1-1-1-1-1---|
E|----------------------------------------------1-1--------------------|


[Solo]
e|---------------------------------------------------------------|
B|---------------------------------------------------------------|
G|---------------------------------------------------------------|
D|---------------------------------------------------------------| 2x
A|---8-8-8-8-8-8-8-10-6-8-8-8-8b-8/5-5-5-5-5-5-5-6-3-5-5-5-5-5/--|
E|---------------------------------------------------------------|


[Walk-down]
e|-------------|
B|------2------|
G|---3--2------|
D|---3--2--5---|
A|---1-----5---|
E|---------3---|


[Chorus]
e|-------------------------------------------|
B|-------------------------------------------|
G|------------------------8-8-8-8--3-3-3-3---|
D|---3-3-3-3-3-3-3-3-3-3--8-8-8-8--3-3-3-3---|
A|---3-3-3-3-3-3-3-3-3-3--6-6-6-6--1-1-1-1---|
E|---1-1-1-1-1-1-1-1-1-1---------------------|

e|-----------------------------------------------------|
B|-----------------------------------------------------|
G|---10-10-10-10-10-10-10-10-10-10--8-8-8-8--3-3-3-3---|
D|---10-10-10-10-10-10-10-10-10-10--8-8-8-8--3-3-3-3---|
A|---8--8--8--8--8--8--8--8--8--8---6-6-6-6--1-1-1-1---|
E|-----------------------------------------------------|

e|---------------------------------------------------------------------|
B|---------------------------------------------------------------------|
G|---3-3-3-3-3-3-3-3-3-3--8-8--3-3-3-3-3-3-3-3-------3-3-3-3-3-3-3-3---|
D|---3-3-3-3-3-3-3-3-3-3--8-8--3-3-3-3-3-3-3-3--3-3--3-3-3-3-3-3-3-3---|
A|---1-1-1-1-1-1-1-1-1-1--6-6--1-1-1-1-1-1-1-1--3-3--1-1-1-1-1-1-1-1---|
E|----------------------------------------------1-1--------------------|


[Verse 3] 2x
e|-----------------------------------------------|
B|-----------------------------------------------|
G|---3-3-3-3-3-3-3-3--8-8--3-3-3-3-3-3-3-3-3-3---|
D|---3-3-3-3-3-3-3-3--8-8--3-3-3-3-3-3-3-3-3-3---|
A|---1-1-1-1-1-1-1-1--6-6--1-1-1-1-1-1-1-1-1-1---|
E|-----------------------------------------------|

e|-----------------------------------------------|
B|-----------------------------------------------|
G|---3-3-3-3-3-3-3-3-------3-3-3-3-3-3-3-3-3-3---|
D|---3-3-3-3-3-3-3-3--3-3--3-3-3-3-3-3-3-3-3-3---|
A|---1-1-1-1-1-1-1-1--3-3--1-1-1-1-1-1-1-1-1-1---|
E|--------------------1-1------------------------|


[Walk-down]
e|-------------|
B|------2------|
G|---3--2------|
D|---3--2--5---|
A|---1-----5---|
E|---------3---|


[Chorus]
e|-------------------------------------------|
B|-------------------------------------------|
G|------------------------8-8-8-8--3-3-3-3---|
D|---3-3-3-3-3-3-3-3-3-3--8-8-8-8--3-3-3-3---|
A|---3-3-3-3-3-3-3-3-3-3--6-6-6-6--1-1-1-1---|
E|---1-1-1-1-1-1-1-1-1-1---------------------|

e|-----------------------------------------------------|
B|-----------------------------------------------------|
G|---10-10-10-10-10-10-10-10-10-10--8-8-8-8--3-3-3-3---|
D|---10-10-10-10-10-10-10-10-10-10--8-8-8-8--3-3-3-3---|
A|---8--8--8--8--8--8--8--8--8--8---6-6-6-6--1-1-1-1---|
E|-----------------------------------------------------|

e|---------------------------------------------------------------------|
B|---------------------------------------------------------------------|
G|---3-3-3-3-3-3-3-3-3-3--8-8--3-3-3-3-3-3-3-3-------3-3-3-3-3-3-3-3---|
D|---3-3-3-3-3-3-3-3-3-3--8-8--3-3-3-3-3-3-3-3--3-3--3-3-3-3-3-3-3-3---| 
A|---1-1-1-1-1-1-1-1-1-1--6-6--1-1-1-1-1-1-1-1--3-3--1-1-1-1-1-1-1-1---|
E|----------------------------------------------1-1--------------------|


[Walk-down]
e|-------------|
B|------2------|
G|---3--2------|
D|---3--2--5---|
A|---1-----5---|
E|---------3---|


[Chorus]
e|-------------------------------------------|
B|-------------------------------------------|
G|------------------------8-8-8-8--3-3-3-3---|
D|---3-3-3-3-3-3-3-3-3-3--8-8-8-8--3-3-3-3---|
A|---3-3-3-3-3-3-3-3-3-3--6-6-6-6--1-1-1-1---|
E|---1-1-1-1-1-1-1-1-1-1---------------------|

e|-----------------------------------------------------|
B|-----------------------------------------------------|
G|---10-10-10-10-10-10-10-10-10-10--8-8-8-8--3-3-3-3---|
D|---10-10-10-10-10-10-10-10-10-10--8-8-8-8--3-3-3-3---|
A|---8--8--8--8--8--8--8--8--8--8---6-6-6-6--1-1-1-1---|
E|-----------------------------------------------------|

e|---------------------------------------------------------------------|
B|---------------------------------------------------------------------|
G|---3-3-3-3-3-3-3-3-3-3--8-8--3-3-3-3-3-3-3-3-------3-3-3-3-3-3-3-3---|
D|---3-3-3-3-3-3-3-3-3-3--8-8--3-3-3-3-3-3-3-3--3-3--3-3-3-3-3-3-3-3---| 2x
A|---1-1-1-1-1-1-1-1-1-1--6-6--1-1-1-1-1-1-1-1--3-3--1-1-1-1-1-1-1-1---|
E|----------------------------------------------1-1--------------------|


[Outro]
e|---------------------------------------------------------|
B|---------------------------------------------------------|
G|---------------------------------------------------------|
D|---------------------------------------------------------|
A|-8-8-8-8-8b-8-8-10--6--8~~~------------------------------|
E|---------------------------------------------------------|
            
Submit corrections


        Ring Of Fire lessons Hard to play? Try these video lessons and learn fast Ring Of Fire lessons
        
↑ Back to top | Tablatures and chords for acoustic guitar and electric guitar, ukulele, drums are parodies/interpretations of the original songs. You may use it for private study, scholarship, research or language learning purposes only