» » »

Social Distortion - Machine Gun Blues Tabs

Artists:  A B C D E F G H I J K L M N O P Q R S T U V W X Y Z # 

Machine Gun Blues Tabs

(ver. 1) Click to play this song!
Social Distortion
 Rating:
4/5 (4 votes)

 Machine Gun Blues lessons Tabs too difficult? Try these video lessons and learn fast
 
                                  Machine Gun Blues



Intro / verse:
(guitar 1)

    E        G        D        E

E---------------------------------|
B---------------------------------|
G---------------------7-----------|
D---2--------5--------7--------2--|
A---2--------5--------5--------2--|
E---0--------3-----------------0--|
***on 3rd time E G D E  DD


Chorus


    E        G        D        A

E---------------------------------|
B---------------------------------|
G---------------------7-----------|
D---2--------5--------7--------7--|
A---2--------5--------5--------7--|
E---0--------3-----------------5--|


(guitar 2)

Intro


E------------          -----------|
B------------          -----------|
G--------9-7-          -9---9-9-9-|
D----7h9-----   (6x)   -----------|
A------------          -----------|
E------------          -----------|



E----------------------------|
B----------------------------|
G--------9-7-------9--9-7----|
D----7h9-------7h9-----------|  (2x) then...
A----------------------------|
E----------------------------|


E------------------------------------------------|
B------8---10b--(10)--8-8--10b--(10)--8b--(8)----|
G--7------------------------------------------7--|
D------------------------------------------------|
A------------------------------------------------|
E------------------------------------------------|



During ringouts...


"I'm Public Enemy Number One..."

E-----12-----10-----------10-----10----|
B--12-----------12-----10-----------12-|
G--------------------------------------|
D--------------------------------------|
A--------------------------------------|
E--------------------------------------|


E----------------------------------------|
B----------------------------------------|
G---9-----9-9\7----9-7-9----12----9-7-9--|
D---x-----x-x-x----x-x-x----x-----x-x-x--|
A---7-----7-7\5----7-5-7----10----7-5-7--|
E----------------------------------------|


E--------------------------------------------------------|
B--------------------------------------------------------|
G---12/14/16---16-16\14-14-14--14\12-12\11-11\9-9\7--7/9-|
D---x--x--x----x--x--x--x--x---x--x--x--x--x--x-x-x--x-x-|
A---10/12/14---14-14\12-12-12--12\10-10\9--9\-7-7\5--5/7-|
E--------------------------------------------------------|


Solo


E---------------------------------------------------------------------|
B---------------------------------------------------------------------|
G---------------------------------------------------------------------|
D-------------------------5h7--9--9p7--5-7/9----9p7--7-7h9p7-5---5b---|
A--5b--7---5b--7---5b--7---------------------------------------7----7-|
E---------------------------------------------------------------------|


E------------------------------------------|
B------------------------------------------|
G------------------------------------------|
D------------------------------------------|
A--5b--7---5b--7---5b--7--7--9-9--99-7--12-|
E------------------------------------------|


E--------------------------------------------|
B--------------------------------------------|
G---14-14-14-14-12----14-14-14-14-12-----12--|
D---14-14-14-14-12----14-14-14-14-12--14-14--|
A--------------------------------------------|
E--------------------------------------------|


E-------12------12------12-------12-------12-12-|
B-------12------12------12-------12-------12-12-|
G---14b-----14b-----14b------14b------14b-------|
D-----------------------------------------------|  (2x)
A-----------------------------------------------|
E-----------------------------------------------|


E-12-12--15b--17---15--15h17--12-----------------------------------------|
B--------------------------------10h12-----------------------------------|
G--------------------------------------12h14-9h12p9----------------------|
D--------------------------------------------------12h14p12-9h12---------|
A---------------------------------------------------------------12h14p12-|
E------------------------------------------------------------------------|


E-------------------------|
B-------------------------|
G-------------------------|
D----------------------2--|
A---10h12p10-----------2--|
E------------12--14b---0--|
            
Submit corrections


        Machine Gun Blues lessons Hard to play? Try these video lessons and learn fast Machine Gun Blues lessons
        
↑ Back to top | Tablatures and chords for acoustic guitar and electric guitar, ukulele, drums are parodies/interpretations of the original songs. You may use it for private study, scholarship, research or language learning purposes only