» » »

Social Distortion - I Was Wrong Tabs

Artists:  A B C D E F G H I J K L M N O P Q R S T U V W X Y Z # 

I Was Wrong Tabs

(ver. 2) Click to play this song!
Social Distortion
 Rating:
4/5 (4 votes)

 I Was Wrong lessons Tabs too difficult? Try these video lessons and learn fast
 
                played with a capo at 1st fret, fret numbers are in relation to the capo
Verse/Chorus: 
Eb Bb F Ab 
e|-----------2-2--2-2-2-0-0--0-0-0-0-0--0-0-0-3-3--3-3-3----------------------| 
B|-----------3-3--3-3-3-2-2--2-2-2-0-0--0-0-0-3-3--3-3-3----------------------| 
G|-----------2-2--2-2-2-2-2--2-2-2-1-1--1-1-1-4-4--4-4-4----------------------| 
D|-----------4-4--4-4-4-2-2--2-2-2-2-2--2-2-2-5-5--5-5-5----------------------| 
A|----------------------0-0--0-0-0-2-2--2-2-2-5-5--5-5-5----------------------| 
E|--------------------------------------------3-3--3-3-3----------------------| 

Bridge (I grew up fast......): 
Bb F Ab Bb 
e|-----------0----------0----------3----------o------------------------------| 
B|-----------2----------0----------3----------2------------------------------| 
G|-----------2----------1----------4----------2------------------------------| 
D|-----------2----------2----------5----------2------------------------------| 
A|-----------0----------2----------5----------0------------------------------| 
E|---------------------------------3-----------------------------------------|
            
Submit corrections


        I Was Wrong lessons Hard to play? Try these video lessons and learn fast I Was Wrong lessons
        
↑ Back to top | Tablatures and chords for acoustic guitar and electric guitar, ukulele, drums are parodies/interpretations of the original songs. You may use it for private study, scholarship, research or language learning purposes only