» » »

Social Distortion - Footprints On My Ceiling Tabs

Artists:  A B C D E F G H I J K L M N O P Q R S T U V W X Y Z # 

Footprints On My Ceiling Tabs

(ver. 2) Click to play this song!
Social Distortion
 Rating:
4/5 (4 votes)

 Footprints On My Ceiling lessons Tabs too difficult? Try these video lessons and learn fast
 
                (Intro)
			     Footprints On My Ceiling - Social Distortion

Tabbing a song is a real pain in the butt!! This is pretty accurate. You may need
to feel out the rhythm at the end of the verse measure.

*=sustained note/chord
pm=palm mute
Tuning:1/2 step flat
Intro/Verse
e|---------------------------------------------------------------------------|
B|---------------------------------------------------------------------------|
G|----(3)*-*-*---------6-*-----6-*-----------------4-*-4-4-------------------|
D|-----4-*-----4-*-6-6-6-*-6-6-6-*-----6-*-----6---4-*-4-4-4---4-*-----4-*---|
A|-4-4-4-*-4-4-4-*-4-4-4-*-4-4-4-*---6-6-*-6-6-6-6-2-*-2-2-4-4-4-*-4-4-4-*---|
E|-2-2-2-*-2-2-2-*-----------------4-4-4-*-4-4-4-4---------2-2-2-*-2-2-2-*---|
  pm--    pm--    pm--    pm--    pm--    pm--              pm--   pm--------|

Lead intro part
e|--------------------------------------------------------------------------|
B|----------------------------------------------7-------------7-------------|
G|-----------------------------------------6/8-----8p6--------6-------------|
D|-----------------------------6b-6br--4---------------6-6h8--8-------------|
A|-----------------4--6--4---4----------------------------------------------|
E|---2---2--4--6------------------------------------------------------------|

Chorus
e|--------------------------------------------------------------------------|
B|--------------------------------------------------------------------------|
G|-----6-*-----6-*---------------------4-*-----4-*-------------6-*----------|
D|-6-6-6-*-6-6-6-*-----6-*-----6-*-4-4-4-*-4-4-4-*-----4-*-6-6-6-*----------|
A|-4-4-4-*-4-4-4-*-6-6-6-*-6-6-6-*-2-2-2-*-2-2-2-*-4-4-4-*-4-4-4-*----------|
E|-----------------4-4-4-*-4-4-4-*-----------------2-2-2-*------------------|


e|--------------------------------------------------------------------------|
B|--------------------------------------------------------------------------|
G|-----6-*-----6-*---------------------4-*-----4-*---------6-----4----------|
D|-6-6-6-*-6-6-6-*-----6-*-----6-*-4-4-4-*-4-4-4-*-----4-*-6-----4----------|
A|-4-4-4-*-4-4-4-*-6-6-6-*-6-6-6-*-2-2-2-*-2-2-2-*-4-4-4-*-4-----2----------|
E|-----------------4-4-4-*-4-4-4-*-----------------2-2-2-*------------------|



************************************
            
Submit corrections


        Footprints On My Ceiling lessons Hard to play? Try these video lessons and learn fast Footprints On My Ceiling lessons
        
↑ Back to top | Tablatures and chords for acoustic guitar and electric guitar, ukulele, drums are parodies/interpretations of the original songs. You may use it for private study, scholarship, research or language learning purposes only