» » »

Social Distortion - Dear Lover Tabs

Artists:  A B C D E F G H I J K L M N O P Q R S T U V W X Y Z # 

Dear Lover Tabs

(ver. 1) Click to play this song!
Social Distortion
 Rating:
4/5 (8 votes)

 Dear Lover lessons Tabs too difficult? Try these video lessons and learn fast
 
                intro

e)--0-0-000--0-0-000-----------2-2-23p22--
B)--0-0-000--1-1-111-----------3-3-33--3--
G)--0-0-000--0-0-000--0-0-000--2-2-22--2--
D)--2-2-222--2-2-222--0-0-000--0-0-00--0--
A)--2-2-222--3-3-333--2-2-222-------------
E)--0-0-000-----------3-3-333-------------

    Em       C        G	       D



verse

e)----------------------------------
B)----------------------------------
G)----------------5--5--5-7-7-------
D)--2--2--2-5-5---5--5--5-7-7-------
A)--2--2--2-5-5---3--3--3-5-5-0-----
E)--0--0--0-3-3-0-------------------

    E5      G5    C5      D5



chorus

e)----------------------------------------
B)----------------------------------------
G)-----------5-5-555-----------7-7-777----
D)--2-2-222--5-5-555--5-5-555--7-7-777----
A)--2-2-222--3-3-3330-5-5-555--5-5-5550---
E)--0-0-0000----------3-3-3330------------



solo

e)-----------------------------------------------------------------
B)-------------------------------------8--8--8-6-6-6-8--8--8-6-6-6-
G)------------------------------4-6-4------------------------------
D)--2--2-/5-7--2--2-/5-7--7--7-------------------------------------
A)--2--2-------2--2------------------------------------------------
E)--0--0-------0--0------------------------------------------------


e)--------------------------------------------------------------------
B)--4--4--4-------------------13--13--13-16-16-16-13--13--13-10-10-10-
G)----------6-6-6-4--4--4-4-4-----------------------------------------
D)--------------------------------------------------------------------
A)--------------------------------------------------------------------
E)--------------------------------------------------------------------



e)---------------------------------------------------------------------
B)--13--13--13-10-10-10-8--8--8-8-8------------------------------------
G)--------------------------------------------------------------4-6-4--
D)----------------------------------2--2-/5-7--2--2-/5-7--7--7---------
A)----------------------------------2--2-------2--2--------------------
E)----------------------------------0--0-------0--0--------------------
            
Submit corrections


        Dear Lover lessons Hard to play? Try these video lessons and learn fast Dear Lover lessons
        
↑ Back to top | Tablatures and chords for acoustic guitar and electric guitar, ukulele, drums are parodies/interpretations of the original songs. You may use it for private study, scholarship, research or language learning purposes only