» » »

Social Distortion - Cold Feelings Tabs

Artists:  A B C D E F G H I J K L M N O P Q R S T U V W X Y Z # 

Cold Feelings Tabs

(ver. 2) Click to play this song!
Social Distortion
 Rating:
4.2/5 (5 votes)

 Cold Feelings lessons Tabs too difficult? Try these video lessons and learn fast
 
                Tabulado por Crisman
Fecha: 9/9/03
Afinacion: 1/2 Turning o en el Live at the roxy, standar

Acordes en esta cancion:
    B     G       D
-----------------------------------------
----------------------3------------------
------4------------7--2------------------
---9--4---5----12--7--0------------------
---9--2---5----12--5---------------------
---7------3----10------------------------

Simbolos:

* --> Palm Muted
h --> En siguiente nota se pone solo el dedo, no se toca la cuerda
/ --> Arrastrar la nota


Solo:
--------12--------------------12-10-7---------------12----------------------------
--11-14----14-11----9--9-9-9----------7/11-11-11-14----11----9-9-9-9--------------
-----------------12---------------------------------------12----------------------


--12-10-7-------------------------------------------------------------------------
----------7/9h11-9h11-9h11-9h11-9h11-11h14-11h14-11h14-11h15-11h16-16/15/14/11----


--------12------------------------------------------------------------------------
--11-14----14----9--9-9-9--9h11-9h11-9h11-9p7--11---------------------------7-7-7-
--------------12----------------------------------9-9-9-9-9-9-9-9-9-9-9-9-9-----9-

Intro: 
  B                          C#    B
-----------------------------------------
-----------------------------------------
-----------------------------------------
--9-9-9-9-9-9-9-9-9-9-9-9-9--12-12-9-----
--9-9-9-9-9-9-9-9-9-9-9-9-9--12-12-9-----
--7-7-7-7-7-7-7-7-7-7-7-7-7--10-10--7-----
  * * * * * * * * * * * * * 

B*  
Uninvited feelings
     G             D                         B
They come without warning and they stay too long
B*
I don't wanna feel, 
       G                  D        B
and if I run they'll be twice as strong.
B
I wait for a warning, 
      G           D           B
I'm waiting for some kind of sign,
B
I try to separate , 
        G           D           B
Try to separate my body from my mind.

INTRO:

B*
I watch the clock 
         G            D                B
as the second hand slowly goes strolling by.
B*
I don't want to feel
         G          D
When a loved one's time comes to die
B
I wait for a warning,
      G           D            B      
I'm waiting for some kind of sign
B
I try to separate, 
          G         D            B
try to separate my body from my mind.

G      D              B
Cold feelings in the night
     G           D                  B
You know, this feeling just ain't right.
     G        D                B
And though I try I just can't hide
G      D               B
Cold feelings in the night

Intro:
Solo: B - B - G - D x4
Intro:

Solo toca la guiatrra dos:

B*
Yeah I got faith,
      G*        D*                      B*
But sometimes fear it just weighs too much 
B*
I don't want to feel,
      G*              D*                  B*
Cold winds blowin' through me with an icy touch.
B*
I wait for a warning,
      G*           D*            B*      
I'm waiting for some kind of sign
B*
I try to separate, 
          G*         D*            B
try to separate my body from my mind.


G      D              B
Cold feelings in the night
     G           D                  B
You know, this feeling just ain't right.
     G        D                B
And though I try I just can't hide
G      D               B
Cold feelings in the night
     G           D                  B
You know, this feeling just ain't right.
     G        D                B
And though I try I just can't hide

G      D               B
Cold feelings in the night
G      D               B
Cold feelings in the night
G      D               B
Cold feelings in the night

G                     
Cold 
D
feelings in the
B 
night


Tabulado por Cristian Ferrer

This is one of my fabourire songs of Social Distortion ;)
            
Submit corrections


        Cold Feelings lessons Hard to play? Try these video lessons and learn fast Cold Feelings lessons
        
↑ Back to top | Tablatures and chords for acoustic guitar and electric guitar, ukulele, drums are parodies/interpretations of the original songs. You may use it for private study, scholarship, research or language learning purposes only