» » »

Social Distortion - Bad Luck Tabs

Artists:  A B C D E F G H I J K L M N O P Q R S T U V W X Y Z # 

Bad Luck Tabs

(ver. 2) Click to play this song!
Social Distortion
 Rating:
4/5 (8 votes)

 Bad Luck lessons Tabs too difficult? Try these video lessons and learn fast
 
                -------------------------------------------------------------------------------
-------------------------------------------------------------------------------

Tuning: 1/2 step down.

Intro:  
eb|-3-3-22-2--------------|------|--------------------------------------------|
Bb|-3-3-33-3--2-2-2222----|------|--------------------------------------------|
Gb|-0-0-22-2--2-2-2222----|------|--------------------------------------------|
Db|-0-0-------2-2-2222-x2-|------|-----77-7--------------------------------x3-|
Ab|-2-2-------------------|------|-5-5-55-5-7-777777---5-5-55-5-7-777777------|
Eb|-3-3-------------------|-(9)/\|-3-3------5-555555---3-3-22-2-5-555555------|

                                  play after first time ^
                                 |------------------------------------|
                                 |------------------------------------|
                                 |------------------------------------|
                                 |--------------------------------x4--|
                                 |--9-7-55-5-5---5-7-77-(7)/----------|
                                 |-------------7----------------------|

Verse:
eb|-------------------------|---------------------|-----------------|
Bb|-------------------------|---------------------|-----------------|
Gb|-------------------------|---------------------|-----------------|
Db|------7777------------x3-|------7777-----------|---7----------x4-|
Ab|-5555-5555-7777-7777-----|-5555-5555-7777-7777-|-5-5-7--7777-----|
Eb|-3333------5555-5555-----|-3333------5555-5555-|-3---5--5555-----|
pm  .. . .. . .. . .. .     |
    3nd time begins to lift.|

Chorus:
eb|--------------------------------------------|
Bb|--------------------------------------------|
Gb|--------------------------------------------|
Db|-----77-7--------------------------------x2-|
Ab|-5-5-55-5-7-777777---5-5-55-5-7-777777------|
Eb|-3-3------5-555555---3-3-22-2-5-555555------|

Solo
eb|-------------------------------||---55---55---55---55---55---55-88888888-5555--555-|
Bb|-------------------------------||O--55---55---55---55---55---55-77777777-5555--555-|
Gb|-------------------------------||-----7----7----7----7----7------------------7-----|
Db|----------------------------x4-||--------------------------------------------------|
Ab|--9-7-55-5-5---5-7-77-(7)/-----||O-------------------------------------------------|
Eb|-------------7-----------------||--------------------------------------------------|

eb|--------------------------------------------------------------||
Bb|-------------------------------------------------------------O||
Gb|---7-7^(7)-5--7-7^(7)-5--7-7^(7)-5----5-5-5-5---5-7-7h8p7-5---||
Db|-----------------------------------7---------77------------7--||
Ab|-------------------------------------------------------------O||
Eb|--------------------------------------------------------------||
   Second time through has minor rhythmic changes.




| /  slide up
| \  slide down
| h  hammer-on
| p  pull-off
| ~  vibrato
| +  harmonic
| x  Mute note
===============================================================================
            
Submit corrections


        Bad Luck lessons Hard to play? Try these video lessons and learn fast Bad Luck lessons
        
↑ Back to top | Tablatures and chords for acoustic guitar and electric guitar, ukulele, drums are parodies/interpretations of the original songs. You may use it for private study, scholarship, research or language learning purposes only