» » »

Socialburn - You Tabs

Artists:  A B C D E F G H I J K L M N O P Q R S T U V W X Y Z # 

You Tabs

(ver. 2) Click to play this song!
Socialburn
 Rating:
4/5 (4 votes)

 You lessons Tabs too difficult? Try these video lessons and learn fast
 
                Intro x4 
                                                 ~ 
e---------------------------------------------------
b--------3-----2-------------------3-----2-----3/7--
g-----------------4--2--4-------------------4-------
d---------------------------------------------------
a--2--2-----2----------------2--2-----2-------------
e---------------------------------------------------

Part 2 x2

e--------------------------------------------------------
b--------------------------------------------------------
g--x--x--7--7--7--7--------------------------------------
d--x--x--7--7--7--7--7--7--7--7--2--2--2--2--5--5--5--5--
a--x--x--5--5--5--5--7--7--7--7--2--2--2--2--5--5--5--5--
e--------------------5--5--5--5--0--0--0--0--3--3--3--3--

Guitar 2

e------------------------------------------
b------------------------------------------
g--7--9--7--9--11--12--11--9--7--9--11-----
d--x--x--x--x--x---x---x---x--x--x--x---5--
a--5--7--5--7--9---10--9---7--5--7--9---5--
e---------------------------------------3--


Verse x3 
                                                  ~ 
e--------------------------|-------------------------
b--------3-----2-----------|--------3-----2-----3/7--
g-----------------4--2--4--|-----------------4-------
d--------------------------|-------------------------
a--2--2-----2--------------|--2--2-----2-------------
e--------------------------|-------------------------

Pre chorus 

e--------------------------
b--------------------------
g--4--4--4--4--------------
d--4--4--4--4--5--5--5--5--
a--2--2--2--2--5--5--5--5--
e--------------3--3--3--3--

Guitar 2

e----------------------
b----------------------
g--7--9--7--9--11--12--
d--x--x--x--x--x---x---
a--5--7--5--7--9---10--
e----------------------

Chorus x2

e--------------------------------------------------
b--------------------------------------------------
g--7--7--7--7--------------------------------------
d--7--7--7--7--7--7--7--7--2--2--2--2--5--5--5--5--
a--5--5--5--5--7--7--7--7--2--2--2--2--5--5--5--5--
e--------------5--5--5--5--0--0--0--0--3--3--3--3--

Guitar 2

e------------
b-----------
g--7--9--7--
d--x--x--x--
a--5--7--5--
e-----------

Verse 2 x3
                                                  ~ 
e--------------------------|-------------------------
b--------3-----2-----------|--------3-----2-----3/7--
g-----------------4--2--4--|-----------------4-------
d--------------------------|-------------------------
a--2--2-----2--------------|--2--2-----2-------------
e--------------------------|-------------------------

Pre chorus x2 

e--------------------------
b--------------------------
g--4--4--4--4--------------
d--4--4--4--4--5--5--5--5--
a--2--2--2--2--5--5--5--5--
e--------------3--3--3--3--

Guitar 2 

e-----------------------------------------------
b-----------------------------------------------
g-----------------------------------------------
d--9--11--12--9--11--12--9--11--12--14--16--17--
a-----------------------------------------------
e-----------------------------------------------

Chorus x2 

e--------------------------------------------------
b--------------------------------------------------
g--7--7--7--7--------------------------------------
d--7--7--7--7--7--7--7--7--2--2--2--2--5--5--5--5--
a--5--5--5--5--7--7--7--7--2--2--2--2--5--5--5--5--
e--------------5--5--5--5--0--0--0--0--3--3--3--3--

Guitar 2

e------------
b-----------
g--7--9--7--
d--x--x--x--
a--5--7--5--
e-----------

Solo

e---------------------------------------------------------------------
b---------------------------------------------------------------------
g----------------------------------------------------------9--11--12--
d--9--11--12--9--11--12--9--11--12--14--16--17--9--11--12-------------
a---------------------------------------------------------------------
e---------------------------------------------------------------------

After solo

e--------------------------------------------------
b--------------------------------------------------
g--7--7--7--7--------------------------------------
d--7--7--7--7--7--7--7--7--2--2--2--2--5--5--5--5--
a--5--5--5--5--7--7--7--7--2--2--2--2--5--5--5--5--
e--------------5--5--5--5--0--0--0--0--3--3--3--3--

Guitar 2 x2

e------------------------------------
b------------------------------------
g--7--9--11--12--11--9--7--9--11-----
d--x--x--x---x---x---x--x--x--x---5--
a--5--7--9---10--9---7--5--7--9---5--
e---------------------------------3--

bridge x2 
                                                  ~
e--------------------------|-------------------------
b--------3-----2-----------|--------3-----2-----3/7--
g-----------------4--2--4--|-----------------4-------
d--------------------------|-------------------------
a--2--2-----2--------------|--2--2-----2-------------
e--------------------------|-------------------------

Guitar 2 plays this chord

e-----
b-----
g--7--
d--7--
a--5--
e-----

Chorus x4

e--------------------------------------------------------
b--------------------------------------------------------
g--x--x--7--7--7--7--------------------------------------
d--x--x--7--7--7--7--7--7--7--7--2--2--2--2--5--5--5--5--
a--x--x--5--5--5--5--7--7--7--7--2--2--2--2--5--5--5--5--
e--------------------5--5--5--5--0--0--0--0--3--3--3--3--

Guitar 2 x16

e-------------------
b-------------------
g-------------------
d--12--11--9--7--9--
a-------------------
e-------------------

Guitar 3 x4

e------------------------------------
b------------------------------------
g--7--9--11--12--11--9--7--9--11-----
d--x--x--x---x---x---x--x--x--x---5--
a--5--7--9---10--9---7--5--7--9---5--
e---------------------------------3--

Guitar 4 x4
                                                  ~ 
e--------------------------|-------------------------
b--------3-----2-----------|--------3-----2-----3/7--
g-----------------4--2--4--|-----------------4-------
d--------------------------|-------------------------
a--2--2-----2--------------|--2--2-----2-------------
e--------------------------|-------------------------

Outro 1

Guitar 1 x2

e--------------------------------------------------------
b--------------------------------------------------------
g--x--x--7--7--7--7--------------------------------------
d--x--x--7--7--7--7--7--7--7--7--2--2--2--2--5--5--5--5--
a--x--x--5--5--5--5--7--7--7--7--2--2--2--2--5--5--5--5--
e--------------------5--5--5--5--0--0--0--0--3--3--3--3--

Guitar 2 x8

e-------------------
b-------------------
g-------------------
d--12--11--9--7--9--
a-------------------
e-------------------

Guitar 3 x2

e------------------------------------
b------------------------------------
g--7--9--11--12--11--9--7--9--11-----
d--x--x--x---x---x---x--x--x--x---5--
a--5--7--9---10--9---7--5--7--9---5--
e---------------------------------3--

Guitar 4 x2 
                                           ~ 
e---------------------------------------------------
b--------3-----2-------------------3-----2-----3/7--
g-----------------4--2--4-------------------4-------
d---------------------------------------------------
a--2--2-----2----------------2--2-----2-------------
e---------------------------------------------------

outro 2 

e--------
b--------
g-----7--
d--5--7--
a--5--5--
e--3-----


yeah T.J. its the real James that you know from carr school lol
            
Submit corrections


        You lessons Hard to play? Try these video lessons and learn fast You lessons
        
↑ Back to top | Tablatures and chords for acoustic guitar and electric guitar, ukulele, drums are parodies/interpretations of the original songs. You may use it for private study, scholarship, research or language learning purposes only