» » »

Socialburn - Never Be The Same Tabs

Artists:  A B C D E F G H I J K L M N O P Q R S T U V W X Y Z # 

Never Be The Same Tabs

(ver. 3) Click to play this song!
Socialburn
 Rating:
3.8/5 (5 votes)

 Never Be The Same lessons Tabs too difficult? Try these video lessons and learn fast
 
                






[INTRO/VERSUS]
   Bm/A             Bm/A             Bm/A              Bm
E|----------------------------------------------------------------------||
B|----------------------------------------------------------------------||
G|--4/2-2-2-2-2-2-2--4/2-2-2-2-2-2-2--4/2-2-2-2-2-2-2--4-4-4-4-4-4-4-4--||
D|--4/2-2-2-2-2-2-2--4/2-2-2-2-2-2-2--4/2-2-2-2-2-2-2--4-4-4-4-4-4-4-4--||
A|--2/0-0-0-0-0-0-0--2/0-0-0-0-0-0-0--2/0-0-0-0-0-0-0--2-2-2-2-2-2-2-2--||
E|----------------------------------------------------------------------||

[PRE-CHORUS]
    A                Bm               A                Bm
E|----------------------------------------------------------------------||
B|-------------------4-4-4-4-4-4-4-4-------------------4-4-4-4-4-4-4-4--||
G|--2-2-2-2-2-2-2-2--4-4-4-4-4-4-4-4--2-2-2-2-2-2-2-2--4-4-4-4-4-4-4-4--||
D|--2-2-2-2-2-2-2-2--2-2-2-2-2-2-2-2--2-2-2-2-2-2-2-2--2-2-2-2-2-2-2-2--||
A|--0-0-0-0-0-0-0-0-------------------0-0-0-0-0-0-0-0-------------------||
E|----------------------------------------------------------------------||

[CHORUS]
    C#m              Bm               C#m              A
E|----------------------------------------------------------------------||
B|----------------------------------------------------------------------||
G|--6-6-6-6-6-6-6-6--4-4-4-4-4-4-4-4--6-6-6-6-6-6-6-6--2-2-2-2-2-2-2-2--||
D|--6-6-6-6-6-6-6-6--4-4-4-4-4-4-4-4--6-6-6-6-6-6-6-6--2-2-2-2-2-2-2-2--||
A|--4-4-4-4-4-4-4-4--2-2-2-2-2-2-2-2--4-4-4-4-4-4-4-4--0-0-0-0-0-0-0-0--||
E|----------------------------------------------------------------------||

[BREAK]
  C#m/Bm               A
E|--------------------------------------||
B|--------------------------------------||
G|--6/4-4-4-4-4-4-4-4--2-2-2-2-2-2-2-2--||
D|--6/4-4-4-4-4-4-4-4--2-2-2-2-2-2-2-2--||
A|--4/2-2-2-2-2-2-2-2--0-0-0-0-0-0-0-0--||
E|--------------------------------------||
            
Submit corrections


        Never Be The Same lessons Hard to play? Try these video lessons and learn fast Never Be The Same lessons
        
↑ Back to top | Tablatures and chords for acoustic guitar and electric guitar, ukulele, drums are parodies/interpretations of the original songs. You may use it for private study, scholarship, research or language learning purposes only