Home » S » Snow Patrol »

Snow Patrol - The Only Noise Tabs

Artists:  A B C D E F G H I J K L M N O P Q R S T U V W X Y Z # 

The Only Noise Tabs

(ver. 2) Click to play this song!
Snow Patrol
Intro/Verse

e---7--------------7-------------7-----------------------|
B-7--7-5--3-3-----7--7-5--3-3---7--7-5--3-3----3-3--5-5--|
G----------0-0-------------0-0-----------0-0----0-0--0-0-|
D--------------------------------------------------------|
A-7----5--3-------7----5--3-----7----5--3----------------|
E--------------------------------------------------------|

Chorus

e------------------|
B-7--5--3--3-3-5---|
G---0--0--0-0-0-0--|
D------------------|
A-7--5--3----------|
E------------------|


Intro  (x2)
verse  (x4)
Chorus (x4)
Verse  (x2)
Chorus (x4)
Outro  (x2)

LYRICS:


It's not perfect but it's
One that I did with you here

It seems careless that I
Shouldn't care less but it's
The only noise I have of yours

I'm so tired because
You'd been so fired up and
There was no keeping up with you

It's no triumph I knew
I was for the high jump but I
Delighted in my best mistake

I only thought of me
I only thought of me
And now you're all I see
Now you're all I see

Reading backwards I see
Where the attack was which in
Real time came out of the blue

It's a weakness that I
Love this bleakness over
Any constant happiness

Shake me out of this
Take me out of this
Carry me with love
Bury me in love
            
Submit corrections

↑ Back to top | Tablatures and chords for acoustic guitar and electric guitar, ukulele, drums are parodies/interpretations of the original songs. You may use it for private study, scholarship, research or language learning purposes only