Home » S » Snow Patrol »

Snow Patrol - Shut Your Eyes Tabs

Artists:  A B C D E F G H I J K L M N O P Q R S T U V W X Y Z # 

Shut Your Eyes Tabs

(ver. 1) Click to play this song!
Snow Patrol
 Rating:
4/5 (4 votes)
                Eyes Open - Snow Patrol
Track 4 - Shut Your Eyes

CAPO ON 1 - All notation relative to capo.

Standard Tuning
Best For Electric Guitar


Main Riff

     & 1 & 2 & 3 & 4 &  1 & 2 & 3 & 4
e|----|---------------|-------------|
b|---3|--3---3---3---1|---1---0---0-|
g|---2|--2---0---0---0|---0---0---0-|
d|---0|--0---2---2---3|---3---0---0-|
a|----|---------------|-------------|
e|----|---------------|-------------|

| = Bar

Notice that the riff is very syncopated and the accent is on the upbeat to each bar!


Secondary Riff

e|-----------------|---------------|-----------------------|-----------------|
b|-----------------|---------------|-----------------------|-----------------|
g|-----------------|---------------|-----------------------|-----------------|
d|--8-8-8-8-8-8-8-8|5-5-5-5-5-5-5-5|10-10-10-10-10-10-10-10|8-8-8-8-8-8-8-8--|
a|--8-8-8-8-8-8-8-8|5-5-5-5-5-5-5-5|10-10-10-10-10-10-10-10|8-8-8-8-8-8-8-8--|
e|--6-6-6-6-6-6-6-6|3-3-3-3-3-3-3-3|8--8--8--8--8--8--8--8-|6-6-6-6-6-6-6-6--|
            
Submit corrections

↑ Back to top | Tablatures and chords for acoustic guitar and electric guitar, ukulele, drums are parodies/interpretations of the original songs. You may use it for private study, scholarship, research or language learning purposes only