Home » S » Snow Patrol »

Snow Patrol - The Golden Floor Chords

Artists:  A B C D E F G H I J K L M N O P Q R S T U V W X Y Z # 

The Golden Floor Chords

(ver. 2) Click to play this song!
Snow Patrol
Tuning: Standard(EADGBe), No capo
 

 A* and G* - You can also play A5 and G5 power chords.

-------
 Intro:
-------

e-------------------------|----------------|
B-2-2-0-----0-----2-0---0-|--2-2-0-----0---|
G-------------------------|----------------|
D-------------------------|----------------|
A-2-2---------------------|--2-2-----------|
E-------2-2---3-3-----3---|--------2-2---3-|

B5 - F#5  G5 [x4] <-- The rhythm (throughout the whole song, except choruses) is something like we divide it 
                      into 4 units, the first unit is B5, the second unit is F#5, and the last two units are G5.
                      So G5 is twice longer than B5 or F#5 and exactly as long as B5 and F#5 together. 
                      In the choruses four units are A, four units are G, then four units are A and 
                      four units are G again. I hope it makes sense.
---------                       
 Verse 1:
---------
 B5       -      F#5      G5
Tell me that you want to dance
  B5         -      F#5      G5
I want to feel your pulse on mine
      B5      -       F#5     G5
Just treat me like a stolen glance
   B5 - F#5  G5
To yourself

---------
 Verse 2:
---------
  B5      -       F#5      G5
A dark shape on a golden floor
            B5     -     F#5    G5 
A sleeping planet with a molten core
      B5       -       F#5        G5
From above we'd cut a slow eight shape
    B5 - F#5   G5
And much more

---------
 Verse 3:
---------
       B5       -      F#5     G5
I'm a peasant in your princess arms
 B5     -     F#5    G5
Penniless with only charm
         B5       -     F#5       G5
As we're leveled by the low, hot lights
    B5   -  F#5   G5
And disarmed

--------
 Chorus:
--------
A*                G*             A*
I'm not afraid of anything even time
                  G*                       ->
It'll eke away at everything but we'll be fine

----------
-> Bridge:
----------

e-------------------------|              |----------------|
B-2-2-0-----0-----2-0---0-|              |--2-2-0-----0---|
G-------------------------|              |----------------|
D-------------------------|  [x3], then: |----------------|
A-2-2---------------------|              |--2-2-----------|
E-------2-2---3-3-----3---|              |--------2-2---3-|

---------
 Verse 4:
---------
    B5      -      F#5      G5
I'm folded in the bread you made
       B5      -     F#5   G5
You're cold until my body bathes
    B5      -     F#5   G5
You in the heat I kept aside
     B5 - F#5   G5
All these days

--------
 Chorus: (I doubled it, 'cause I like it more this way, but you can play only the second one, if you want)
--------
A*                G*             A*
I'm not afraid of anything even time
                  G*                        A*
It'll eke away at everything but we'll be fine

A*                G*             A*
I'm not afraid of anything even time
                  G*                       ->
It'll eke away at everything but we'll be fine

---------
-> Outro:  (same as the bridge)
---------

e-------------------------|              |----------------|
B-2-2-0-----0-----2-0---0-|              |--2-2-0-----0---|
G-------------------------|              |----------------|
D-------------------------|  [x3], then: |----------------|
A-2-2---------------------|              |--2-2-----------|
E-------2-2---3-3-----3---|              |--------2-2---3-|            
Submit corrections

↑ Back to top | Tablatures and chords for acoustic guitar and electric guitar, ukulele, drums are parodies/interpretations of the original songs. You may use it for private study, scholarship, research or language learning purposes only