Home » S » Snow Patrol »

Snow Patrol - Set Down Your Glass Tabs

Artists:  A B C D E F G H I J K L M N O P Q R S T U V W X Y Z # 

Set Down Your Glass Tabs

(ver. 1) Click to play this song!
Snow Patrol
**CAPO 2**

Verse play this 8 times


e-------0-----------0----|
B------------------------|
G---------0------------0-|
D----3----------3--------|
A-3----------------------|
E-----------3------------|

Then the bridge/pre chorus

e-------0------------0-------------0--------------0-----|
B-------------------------------------------------------|
G----------0------------0-------------0---------------0-|
D----3-----------3--------------3-------------3---------|
A---------------------------0---------------------------|
E-1-----------3---------------------------3-------------|


e--------0------------0---------------0--------------0------|
B--------------------------------------------------------0--|
G-----------0-------------0--------------0------------------|
D----3------------3---------------3---------------3---------|
A-----------------------------3-----------------------------|
E-1-----------3------------------------------3--------------|


e-------0-----------0----|
B------------------------|
G---------0------------0-|
D----3----------3--------|
A-3----------------------|
E-----------3------------|

Chorus

          (F)                        (G)
e-------------------------------------------------------------|
B-------------------------------------------------------------|
G------0-----0------0------0-----0-----0-----0-----0----------|
D-------------------------------------------------------------|
A-------------------------------------------------------------|
E--1------1------1------1-----3-----3-----3-----3-------------|


         (Am)                       (G)
e------------------------------------------------------------|
B------------------------------------------------------------|
G-----0------0------0--------0------0------0-------0-------0-|
D------------------------------------------------------------|
A-0------0------0-------0------------------------------------|
E-------------------------------3------3-------3------3------|


          (F)                        (G)
e-------------------------------------------------------------|
B-------------------------------------------------------------|
G------0-----0------0------0-----0-----0-----0-----0----------|
D-------------------------------------------------------------|
A-------------------------------------------------------------|
E--1------1------1------1-----3-----3-----3-----3-------------|

back to start and  pattern till the end

e-------0-----------0----|
B------------------------|
G---------0------------0-|
D----3----------3--------|
A-3----------------------|
E-----------3------------|

etcetc
            
Submit corrections

↑ Back to top | Tablatures and chords for acoustic guitar and electric guitar, ukulele, drums are parodies/interpretations of the original songs. You may use it for private study, scholarship, research or language learning purposes only