» » »

Smashing Pumpkins - Fuck You (An Ode To No One) Bass

Artists:  A B C D E F G H I J K L M N O P Q R S T U V W X Y Z # 

Fuck You (An Ode To No One) Bass

(ver. 1) Click to play this song!
Smashing Pumpkins
 Rating:
4/5 (4 votes)
                song is down a step and drop D
(CGCF)
-----------------------------------------|
-----------------------------------------|
-----------------------------------------|
-4-4-4-4-4-4-4-4-4-4-4-4-4-4-4-4-4-4-4-4-|
never comin back

----------------------------------------|
----------------------------------------|
----------------------------------------|
-7-7-7-7-7-7-7-7-7-7-7-7-7-7-7-7-7------|
never be the shine in your, spit.

------------------------------------------------|
------------------------------------------------|
------------------------------------------------|
--4-4-4-4-4-4-4p004p0-7h8p0-4-4-4-4-2-2-2-2-----|
your mistaken its you whose fakin

----------------------------------------|
----------------------------------------|
---------------------------------6-6-6--|
-4-4-4-4-6-6-6-6-7-7-7-7-9-9-9-9--------|
you make me so I need, to disconnect


----------------------------------------|
----------------------------------------|
----------------------------------------|
-7\---2---/4----------------------------|
give it all back to you
            
Submit corrections

↑ Back to top | Tablatures and chords for acoustic guitar and electric guitar, ukulele, drums are parodies/interpretations of the original songs. You may use it for private study, scholarship, research or language learning purposes only