Home » S » Small Faces »

Small Faces - Here Come The Nice Tabs

Artists:  A B C D E F G H I J K L M N O P Q R S T U V W X Y Z # 

Here Come The Nice Tabs

(ver. 1) Click to play this song!
Small Faces
 Intro
  Q=116
  N.C.             Asus4A         Asus4A
 4/4
  Gtrs I, II (El. & Ac. Gtr.)
  H    Q  E E   Q  Q  E Q  E   Q  Q  E Q  E
|-------------|----0--0-0----|----0--0-0----||
|-------------|----3--3-2----|----3--3-2----||
|-------------|----2--2-2----|----2--2-2----||
|-------------|----2--2-2----|----2--2-2----||
|-------------|-0--0--0-0----|-0--0--0-0----||
|-----------0-|------------0-|------------0-||


   1st & 2nd Verses
    D                        A
    Gtr II
    Q  E E +E  E E E   E E E E +E  E E E
||--2----2-(2)---2-2-|-2-2---0-(0)-----0-|
||o-3----------3-3-3-|-3-3---2-(2)-----2-|
||--2--2---------2-2-|-2-2---2-(2)-2---2-|
||--0------------0-0-|-0-0-0-2-(2)---2-2-|
||o------------------|-------0-(0)-----0-|
||-------------------|-------------------|


  G                  D     A
  Q  E E +E  E E E   E E E E +E  E E E
|-3--3-3-(3)-----3-|-2-2---0-(0)-0-0-0-|
|-0--0-0-(0)-0---0-|-3-3---2-(2)-2-2-2-|
|-0--0-0-(0)---0-0-|-2-2---2-(2)-2-2-2-|
|-0--0-0-(0)---0-0-|-0-0-0-2-(2)-2-2-2-|
|------------------|-------0-(0)-0-0-0-|
|-3--3-3-(3)-----3-|-------------------|


  D                   A                   G                 D     E
                                                           2/4
  E E E E +E  E E E   E E E E +E  E E E   E E E E E E E E   E E E E
|-2-----2-(2)-------|-0-------------0-0-|-------3-3-3-3-3-|-2-2-2-0--|
|-3---3-------3---3-|-2-------------2-2-|-----0---0-0-0-0-|-3-3-3-0--|
|-2-------------2---|-2-----------2-2-2-|---0-----0-0-0-0-|-2-2-2-1--|
|-0-0---------------|-2-----------2-2-2-|---------0-0-0-0-|-0-0-0-2--|
|-------------------|-0-----0-(0)---0-0-|-----------------|-------2--|
|-------------------|---0-2-------------|-3-------3-3-3-3-|-------0--|


                                            Chorus
                                             A             E     D
 4/4
                                             Gtrs I, II
  +E  E E S S E E E S S   E E E E E E E E    Q  Q  Q  Q    Q  Q  E E Q
|-(0)---0-0-0-0-0-0-0-0-|-0-0-0-0-0-0-0-0-||-0--0--0--0--|-0--0--2-2-2--|
|-(0)---0-0-0-0-0-0-0-0-|-0-0-0-0-0-0-0-0-||-2--2--2--2--|-0--0--3-3-3--|
|-(1)---1-1-1-1-1-1-1-1-|-1-1-1-1-1-1-1-1-||-2--2--2--2--|-1--1--2-2-2--|
|-(2)---2-2-2-2-2-2-2-2-|-2-2-2-2-2-2-2-2-||-2--2--2--2--|-2--2--0-0-0--|
|-(2)---2-2-2-2-2-2-2-2-|-2-2-2-2-2-2-2-2-||-0--0--0--0--|-2--2---------|
|-(0)-0-0-0-0-0-0-0-0-0-|-0-0-0-0-0-0-0-0-||-------------|-0--0---------|


  A             E     D        A              G        Gmaj7       G6    G5
  Q  Q  Q  Q    Q  Q  E E Q    Q  Q  E E Q    Q  E S S S S E E E   Q  Q  H
|-0--0--0--0--|-0--0--2-2-2--|-0--0--0-0-0--|-3--3-3-3-2-2-2-2-2-|-0--0-------|
|-2--2--2--2--|-0--0--3-3-3--|-2--2--2-2-2--|-0--0-0-0-0-0-0-0-0-|-0--0--3----|
|-2--2--2--2--|-1--1--2-2-2--|-2--2--2-2-2--|-0--0-0-0-0-0-0-0-0-|-0--0--0----|
|-2--2--2--2--|-2--2--0-0-0--|-2--2--2-2-2--|-0--0-0-0-0-0-0-0-0-|-0--0--0----|
|-0--0--0--0--|-2--2---------|-0--0--0-0-0--|--------------------|------------|
|-------------|-0--0---------|--------------|-3--3-3-3-3-3-3-3-3-|-3--3--3----|


                Bridge
  A                A+                  F#m/A             A7
                   Gtr II
  H.      E E    E E E E +E  E E E   E E E E +E  E E E   E  E E E +E  E E E
|-0-----------||-------5-(5)-------|-------5-(5)-------|--------5-(5)--------|
|-2-----------||-------6-(6)-------|-----7-------7-----|------8-------8---0--|
|-2-----------||-----6-------6-----|---6-----------6-x-|----6-----------6-0--|
|-2-------2-2-||---7-----------7---|-------------------|------------------0--|
|-0-------0-0-||-------------------|-------------------|-7-------------------|
|-------------||-----------------0-|-------------------|---------------------|
                                                         H.             Q


  D                                      E7                E
  E E E E +E  E E E   E E E E +E  E Q    E E E E E E E E   E E E E E E E E
|-------------------|------------------|-------0---------|-0-0-0-0-0-0-0-0--||
|-------7-(7)---7---|-------7-(7)------|-----3---3---3---|-0-0-0-0-0-0-0-0--||
|---7-7-------7---7-|---7-7-------7----|---1-------1---1-|-1-1-1-1-1-1-1-1--||
|-------------------|---------------7--|-2---------------|-2-2-2-2-2-2-2-2--||
|-5-----------------|-5----------------|-----------------|-2-2-2-2-2-2-2-2--||
|-------------------|------------------|-----------------|-0-0-0-0-0-0-0-0--||
  W                   W                  W


 Chorus
  A             E     D        A             E     D
  Gtrs I, II
  Q  Q  Q  Q    Q  Q  E E Q    Q  Q  Q  Q    Q  Q  E E Q
|-0--0--0--0--|-0--0--2-2-2--|-0--0--0--0--|-0--0--2-2-2---|
|-2--2--2--2--|-0--0--3-3-3--|-2--2--2--2--|-0--0--3-3-3---|
|-2--2--2--2--|-1--1--2-2-2--|-2--2--2--2--|-1--1--2-2-2---|
|-2--2--2--2--|-2--2--0-0-0--|-2--2--2--2--|-2--2--0-0-0---|
|-0--0--0--0--|-2--2---------|-0--0--0--0--|-2--2----------|
|-------------|-0--0---------|-------------|-0--0----------|


                                                        Interlude
                                                        1.
  A              G        Gmaj7       G6      G5            Asus4A
  Q  Q  E E Q    Q  E S S S S E E E   E E E E E E E E    Q  Q  E Q  E
|-0--0--0-0-0--|-3--3-3-3-2-2-2-2-2-|-0-0-0-0---------||----0--0-0-----|
|-2--2--2-2-2--|-0--0-0-0-0-0-0-0-0-|-0-0-0-0-3-3-3-3-||----3--3-2-----|
|-2--2--2-2-2--|-0--0-0-0-0-0-0-0-0-|-0-0-0-0-0-0-0-0-||----2--2-2-----|
|-2--2--2-2-2--|-0--0-0-0-0-0-0-0-0-|-0-0-0-0-0-0-0-0-||----2--2-2-----|
|-0--0--0-0-0--|--------------------|-----------------||-0--0--0-0-----|
|--------------|-3--3-3-3-3-3-3-3-3-|-3-3-3-3-3-3-3-3-||------------0--|


                                                       Chorus
                  2.
                   G                                    A
  Q  Q  E Q.       E E E E E E E E   E E E E E E E E    Q  E S S E E E E
|----0--0-0-----||-3-3-3-3-3-3-3-3-|-3-3-3-3-3-3-3-3-||-0--0-0-0-0-0-0-0-|
|----3--3-2----o||-0-0-0-0-0-0-0-0-|-0-0-0-0-0-0-0-0-||-2--2-2-2-2-2-2-2-|
|----2--2-2-----||-0-0-0-0-0-0-0-0-|-0-0-0-0-0-0-0-0-||-2--2-2-2-2-2-2-2-|
|----2--2-2-----||-0-0-0-0-0-0-0-0-|-0-0-0-0-0-0-0-0-||-2--2-2-2-2-2-2-2-|
|-0--0--0-0----o||-----------------|-----------------||-0--0-0-0-0-0-0-0-|
|---------------||-3-3-3-3-3-3-3-3-|-3-3-3-3-3-3-3-3-||------------------|


  E       D           A
  E E E E S S E E E   Q  E S S S S E E E
|-0-0-0-0-2-2-2-2-2-|-0--0-0-0-0-0-0-0-0-|
|-0-0-0-0-3-3-3-3-3-|-2--2-2-2-2-2-2-2-2-|
|-1-1-1-1-2-2-2-2-2-|-2--2-2-2-2-2-2-2-2-|
|-2-2-2-2-0-0-0-0-0-|-2--2-2-2-2-2-2-2-2-|
|-2-2-2-2-----------|-0--0-0-0-0-0-0-0-0-|
|-0-0-0-0-----------|--------------------|


  E       D           A
  E E E E S S E E E   S S E E. S S S E E S S
|-0-0-0-0-2-2-2-2-2-|-0-0-0-0--0-0-0-0-0-0-0--|
|-0-0-0-0-3-3-3-3-3-|-2-2-2-2--2-2-2-2-2-2-2--|
|-1-1-1-1-2-2-2-2-2-|-2-2-2-2--2-2-2-2-2-2-2--|
|-2-2-2-2-0-0-0-0-0-|-2-2-2-2--2-2-2-2-2-2-2--|
|-2-2-2-2-----------|-0-0-0-0--0-0-0-0-0-0-0--|
|-0-0-0-0-----------|-------------------------|


                                         Outro
  G         Gmaj7       G6      G5           Asus4A         Asus4A
                                          Gtrs I, II
  E E E S S S S E E E   E E E E Q  E E    Q  Q  E Q  E   Q  Q  E Q  E
|-3-3-3-3-3-2-2-2-2-2-|-0-0-0-0--------||----0--0-0----|----0--0-0-----|
|-0-0-0-0-0-0-0-0-0-0-|-0-0-0-0-3------||----3--3-2----|----3--3-2-----|
|-0-0-0-0-0-0-0-0-0-0-|-0-0-0-0-0------||----2--2-2----|----2--2-2-----|
|-0-0-0-0-0-0-0-0-0-0-|-0-0-0-0-0------||----2--2-2----|----2--2-2-----|
|---------------------|----------------||-0--0--0-0----|-0--0--0-0-----|
|-3-3-3-3-3-3-3-3-3-3-|-3-3-3-3-3--3-4-||------------0-|------------0--|


     Asus4A
  Q  Q  E Q  E   W          +W           Wx3
|----0--0-0----|-0--------|-(0)--------|--------*|
|----3--3-2----|-2--------|-(2)--------|--------*|
|----2--2-2----|-2--------|-(2)--------|--------*|
|----2--2-2----|-2--------|-(2)--------|--------*|
|-0--0--0-0----|-0--------|-(0)--------|--------*|
|------------0-|----------|------------|--------*|            
Submit corrections

↑ Back to top | Tablatures and chords for acoustic guitar and electric guitar, ukulele, drums are parodies/interpretations of the original songs. You may use it for private study, scholarship, research or language learning purposes only