Home » S » Smak »

Smak - Biska Tabs

Artists:  A B C D E F G H I J K L M N O P Q R S T U V W X Y Z # 

Biska Tabs

(ver. 2) Click to play this song!
Smak

Written by Radomir Mihajlovic-Tocak 

Naucite i uzivajte!

  Intro
E ---------------------------------| 
B ---------------------------------| 
G ------9-------7--------4---------| 
D 99-9-99-77-7-77--2--4--4-4-------| 
A 99-9-97-77-7-75--2--4--2-4-------| 
E 77-7-7--55-5-5---0--2----2-------| 4x

               X3 
|----------------
|----------------
|------4---------
|2--4--4-4-------
|2--4--2-4-------
|0--2----2-------

Riff 1
|--------------------------------------------------- 
|-----------2----------------2----------------2----- 
|----4--2424-242------4--2424-2--------4--2424-242--
|4-4--------------4-4--------------4-4--------------
|---------------------------------------------------
|---------------------------------------------------

-------------------------0-----------------0--------
------2-------------3-232--232------3-232----2------
--4-4--4-2------2-2-------------2-2-----------------
4----------4----------------------------------------
----------------------------------------------------
----------------------------------------------------
----------------------------------------------------

------------0--------------0---------
------3-232---232------3-3---3-2-----
--2-2---------------2------------3---
-------------------------------------
-------------------------------------
-------------------------------------


Riff 2
|----------------|| 
|----------------|| 
|----------------|| 
|-4--47-4--------|| 
|--67--6-7--77---|| 
|0-------0--00---|| 4x





Solo 1 (1. Lead)
|--------------------------------------------------------
|------12----12p10--------12^1412p10--------------------- 
|----11-----------11----------------12-11-----9^11-9-7-6-
|1314----------------------------------------------------
|--------------------------------------------------------
|--------------------------------------------------------

                    X2  Then
|--------------------        ----------------------------
|-------------9------        --7------5----3-------------
|--9-7-9---7---------        --9/11---7/9--5/7-----------
|----------------9---        ----------------------------
|--------------------        ----------------------------
|--------------------        ----------------------------



Solo 1. (2. Rhythm)
|---------------------------------------------------
|---------------------------------------------------
|----2-----5---------------2-----2---------4-----5--
|--4--4---7-7---5----3----4--4--2-2------4--4---7-7-
|2------5------7-7--5-5-2------0-------2------5-----
|-------------5----3--------------------------------

|----------------------------------------------2--2--2-
|----------------------------------------------3--3--3-
|--------------------2-------2-----------------2--2--2-
|----5-------3-----4---4---2---2----4------2-----------
|--7---7---5---5-2-------0--------4--4---2--2----------
|5-------3-----------------------2------0--------------

Solo 2 (Rhythm.)                
|----------------|                
|----------------|                                               
|4--444-4--------|                                               
|4--444-4-2-22---|                                               
|2--222-2-2-22---|              
|---------0-00---| 

Solo 2 (Lead.) This is made entirely on the b pentatonic, 
so you can improvise as well if you want.


|--------------------------------------------------------
|-----------------------------------------------------7--
|-----------7-------------7-----------------------7-7----
|--7h9-9-7-9-9---7h9-9-7-9-9-7-9-7-7----7h9-9-7-9--9-----
|---------------------------------9-9--------------------
|--------------------------------------------------------

|---------------------7777-------------------------------
|---7-7-------------------7------------------------------
|------7---------9-7-9-----9-7-9-7-----------------------
|-------97-9-7------9-------------7-9-7------------------
|--------------------------------------------------------
|--------------------------------------------------------

|----7-7---7---------------------------------------------
|-------10--10-7-----------------------------------------
|----------------9-7--7-9p7-----------7------------------
|--------------------9-----9p7h9--7-9---9----------------
|--------------------------------------------------------
|--------------------------------------------------------

|----------------------------------7-7-7-7---------------
|-----------------------------------------10-7-----------
|---9b11-9b11-9b11-9b11-9b11-9-7-------------------------
|--------------------------------------------------------
|--------------------------------------------------------
|--------------------------------------------------------

|--------------------------------------------------------
|--------------------------------------------------------
|---9b11-9b11-9b11-9b11-9b11-9-7----9b11--7--------------
|-------------------------------------------9-7-9--------
|--------------------------------------------------------
|--------------------------------------------------------

|---7-7777---------12-12121212-10------7-7777------------
|----------10-7-------------------12----------10-7-------
|--------------------------------------------------9p7---
|------------------------------------------------------9-
|--------------------------------------------------------
|--------------------------------------------------------

|---12-12121212-10-----12-12121212-10---12-10-12-10-12-12
|-----------------12-----------------12------------------
|--------------------------------------------------------
|--------------------------------------------------------
|--------------------------------------------------------
|--------------------------------------------------------


|--12-10-12-10-12-12---12-10-12-10-12-12-12-10-12-10-----
|---------------------------------------------------10-12
|--------------------------------------------------------
|--------------------------------------------------------
|--------------------------------------------------------
|--------------------------------------------------------

|--------------------------------------------------------
|-------12-10-12-10-12-12---12-10-12-10-12-12------------
|--------------------------------------------------------
|--------------------------------------------------------
|--------------------------------------------------------
|--------------------------------------------------------

|--------------------------------------------------------
|----12-10-12-10-12-12-----------------------------------
|----------------------11-9------------------------------
|--------------------------12-9--------------------------
|------------------------------12-9----------------------
|------------------------------------7-------------------

|----------------------
|----------------------
|----7----------7------
|----7----------7------
|----5-0h2--4---5------
|----------------------

Order:
Intro
Riff 1
Riff 2
Solo 1
Riff 1
Riff 2
Solo 1
Solo 2
Riff 1 (fade out)
            
Submit corrections

↑ Back to top | Tablatures and chords for acoustic guitar and electric guitar, ukulele, drums are parodies/interpretations of the original songs. You may use it for private study, scholarship, research or language learning purposes only