Home » S » Smak »

Smak - Biska Tabs

Artists:  A B C D E F G H I J K L M N O P Q R S T U V W X Y Z # 

Biska Tabs

(ver. 1) Click to play this song!
Smak
 Rating:
4/5 (4 votes)
                /=slide up
\=slide down
p=pull of
h=hammer on
^=band
r=release
t=triplet
"=32nd note
x=pause

  intro
e ----------------|----------------| 
B ----------------|----------------| 
G ------9-------7-|------4---------| 
D 99-9-99-77-7-77-|2--4--4-4-------| 
A 99-9-97-77-7-75-|2--4--2-4-------| 
E 77-7-7--55-5-5--|0--2----2-------| 3x

|----------------|----------------|--------|----------------||
|----------------|----------------|--------|----------------||
|------4---------|------4---------|------4-|----------------||
|2--4--4-4-------|2--4--4-4-------|2--4--4-|4--------------2||
|2--4--2-4-------|2--4--2-4-------|2--4--2-|4---------------||
|0--2----2-------|0--2----2-------|0--2----|2---------------||

riff 1
|----------------|----------------|----------------|----------------|| 
|-----------2----|-----------2----|-----------2----|-----2----------|| 
|----4--2424-242-|----4--2424-2---|----4--2424-242-|--4-4-42--------|| 
|4-4-------------|4-4-------------|4-4-------------|4-------4-------|| 
|----------------|----------------|----------------|----------------|| 
|----------------|----------------|----------------|----------------|| 2x


riff 2
|----------------|| 
|----------------|| 
|----------------|| 
|-4--47-4--------|| 
|--67--6-7--77---|| 
|0-------0--00---|| 4x

solo 1 (1. guitar)
|------------------------|--------------------------|------------0---| 
|------12----12p10-------|12^1412p10----------------|------------0---| 
|----11-----------11-----|----------1211979^119-76--|------9-----0---| 
|1314--------------------|------------------------97|9---9--7----9---| 
|------------------------|--------------------------|-----9------7---| 
|------------------------|--------------------------|--------0--0----| 

|------------------------|--------------------------|-----------------| 
|------12----12p10-------|12^1412p10----------------|-----------------| 
|----11-----------11-----|----------1211979^119-76--|------7-7h9------| 
|1314--------------------|------------------------97|9---9--9---------| 
|------------------------|--------------------------|-----9-----------| 
|------------------------|--------------------------|-----------------| 

|---------------------|-----------------||
|7----------5---------|3----------------||
|9^11-------7^9-------|5^7--------------||
|---------------------|-----------------||
|---------------------|-----------------||
|---------------------|-----------------||

solo 1. (2. guitar)
|----------------|----------------|--------0--00---|----------------|
|----------------|----------------|--------0--00---|----------------|
|----2-------5---|----------------|----2---0--00---|----2-------5---|
|--4---4---7---7-|----5-------3---|--4---4-4--44---|--4---4---7---7-|
|2-------5-------|--7---7---5---5-|2-------2--22---|2-------5-------|
|----------------|5-------3-------|--------0--00---|----------------|

|----------------|----------------|----------------|2---2---2---2---||
|----------------|----------------|----------------|3---3---3---3---||
|----------------|----2-------2---|----------------|2---2---2---2---||
|----5-------3---|--4---4---2---2-|----4-------2---|0---0---0---0---||
|--7---7---5---5-|2-------0-------|--4---4---2---2-|----------------||
|5-------3-------|----------------|2-------0-------|----------------||

solo 2 (accomp.)               last loop
|----------------|              |----------------|-------------||
|----------------|              |----------------|-------------||
|4--444-4--------|              |4--444-4----2---|-------------||
|4--444-4-2-22---|              |4--444-4-2-22---|-------------||
|2--222-2-2-22---|              |2--222-2-2-20---|-------------||
|---------0-00---| free impro.  |---------0-0----|-------------||

form: intro|riff1|riff2|solo1|riff1|riff2|solo1|solo2|riff1|riff1|fade out

SMAK-"LP SMAK"
            
Submit corrections

↑ Back to top | Tablatures and chords for acoustic guitar and electric guitar, ukulele, drums are parodies/interpretations of the original songs. You may use it for private study, scholarship, research or language learning purposes only