» » »

Slightly Stoopid - Sensimilla Tabs

Artists:  A B C D E F G H I J K L M N O P Q R S T U V W X Y Z # 

Sensimilla Tabs

(ver. 1) Click to play this song!
Slightly Stoopid
 Rating:
4/5 (4 votes)

 Sensimilla lessons Tabs too difficult? Try these video lessons and learn fast
 
                Regular Tuning

-mute where needed

Guitar 1
e|-------------------------------------------------------------------------|
B|-------------------------------------------------------------------------|
G|---6-4-------------------4--2-4--2--------6-4-------------------4--2-4--2|
D|7-------7-6--4-2----2------------------777-----7-6--4-2----2-------------|
A|-------------------------------------------------------------------------|
E|-------------------------------------------------------------------------|

Guitar 2
e|-------------------------------------------------------------------------|
B|-------------------------------------------------------------------------|
G|-------------------------------------------------------------------------|
D|-------------------------------------------------------------------------|
A|-------------------------2--0-2--0-----0004-2--0----------------2--0-2--0|
E|-------------------------------------------------4--2-0----0--0----------|

Guitar 1  Play Six Times 
e|-----------------------------------|
B|-----------------------------------|
G|---6-4------------------4--2-4--2--|
D|777-----7-6--4-2----2--------------|
A|-----------------------------------|
E|-----------------------------------|

Guitar 2   Play Six Times        
e|-----------------------------------|
B|-----------------------------------|
G|-----------------------------------|
D|-----------------------------------|
A|0004-2--0----------------2--0-2--0-|
E|----------4--2-0----000------------|

Guitar 1 - Play pretty much the rest of the song. It pauses twice at some point.
e|-5--------5--------4---------4---------5--------5---------4----------4---|
B|-5--------5--------5---------5---------5--------5---------5----------5---|
G|-6--------6--------4---------4---------6--------6---------4----------4---|
D|-------------------------------------------------------------------------|
A|-------------------------------------------------------------------------|
E|-------------------------------------------------------------------------|

Guitar 2 - Play the rest of the song.
e|-------------------------------------------------------------------------|
B|-------------------------------------------------------------------------|
G|-------------------------------------------------------------------------|
D|-------------------------------------------------------------------------|
A|0004-2--0----------------2--0-2--0-----0004-2--0----------------2--0-2--0|
E|----------4--2-0----000--------------------------4--2-0----0--0----------|


Guitar 1 - Fill in right before the first Guitar 1 pause ends.
e|----------|
B|----------|
G|----------|
D|7779779797|
A|----------|
E|----------|
            
Submit corrections


        Sensimilla lessons Hard to play? Try these video lessons and learn fast Sensimilla lessons
        
↑ Back to top | Tablatures and chords for acoustic guitar and electric guitar, ukulele, drums are parodies/interpretations of the original songs. You may use it for private study, scholarship, research or language learning purposes only