» » »

Sleater-Kinney - Dig Me Out Tabs

Artists:  A B C D E F G H I J K L M N O P Q R S T U V W X Y Z # 

Dig Me Out Tabs

(ver. 2) Click to play this song!
Sleater-Kinney
 Rating:
4.3/5 (15 votes)

 Dig Me Out lessons Tabs too difficult? Try these video lessons and learn fast
 
                Intro:
e|---------------------------------------------------------------------------|
B|-7-7-7---9-9-9---7-7-7--9-9------------------------------------------------|
G|-7-7-7---6-6-6---7-7-7--6-6----9-9-7-7-9-9-7-7-----------------------------|
D|-------6-------6------6----6-6-9-9-7-7-9-9-7-7-9-9-9-9-9------------ ------|
A|---------------------------------------------7-9-9-9-9-9---------- --------|   x3
E|---------------------------------------------------------------------------|

Chorus:
e|---------------------------------------------------------------------------|
B|-----9--------------9------------------------------------------------------|
G|-7-7-----6-6----7-7-----6-6-----9-9-7-7-9-9-7-7----------------------------|
D|-------9----6-6-------9-----6-6-9-9-7-7-9-9-7-7----------------------------|
A|------------------------------------------------9-9-9-7-9b10-7-------------|
E|---------------------------------------------------------------------------|  x4

Bridge 1:
e|---------------------------------------------------------------------------|
B|---------------------------------------------------------------------------|
G|-8-8-8-8-8-8-8-------8-------8---6-6-6-6-6-6-6-6-----8-8-------------------|
D|---------------8-9-8---8-9-8---8-----------------9-9-----8-8-9-------------|
A|---------------------------------------------------------------6-----------|
E|---------------------------------------------------------------------------| x2

Chorus

Bridge 2:
e|---------------------------------------------------------------------------|
B|-7-----7-----7-----------------7-----7-----7-------------------------------|
G|---7-----7-----7-----------------7-----7-----7-----------------------------|
D|-----9-----9-----8-8-9-8-8---------7-----7-----6-6-7-6---------------------|
A|----------------- ---------7---------------------------9-7-----------------|
E|---------------------------------------------------------------------------| x2

Bridge 1

Bridge 2 (slightly different)
e|---------------------------------------------------------------------------|
B|-7-----7-----7-----------------7-----7-----7-------------------------------|
G|---7-----7-----7-----------------7-----7-----7-----------------------------|
D|-----9-----9-----8-8-9-8-8---------7-----7-----6-6-7-6---------------------|
A|----------------- ---------7---------------------------9-7-----------------|
E|---------------------------------------------------------------------------| x2

e|---------------------------------------------------------------------------|
B|-7-----7-----7-----------------7-----7-----7-------------------------------|
G|---7-----7-----7-----------------7-----7-----7-----------------------------|
D|-----9-----9-----8-8-9-8-8---------7-----7-----6-6-7-7-9-------------------|
A|----------------- ---------7-----------------------------7-----------------|
E|---------------------------------------------------------------------------|

e|---------------------------------------------------------------------------|
B|-7-----7-----7-----------------7-----7-----7----7-7-7----------------------|
G|---7-----7-----7-----------------7-----7-----7--7-7-7----------------------|
D|-----9-----9-----8-8-9-8-8---------7-----7------7-7-7----------------------|
A|----------------- ---------7---------------------------7-------------------|
E|---------------------------------------------------------------------------|

Chorus

Intro

end...            
Submit corrections


        Dig Me Out lessons Hard to play? Try these video lessons and learn fast Dig Me Out lessons
        
↑ Back to top | Tablatures and chords for acoustic guitar and electric guitar, ukulele, drums are parodies/interpretations of the original songs. You may use it for private study, scholarship, research or language learning purposes only