» » »

Sleater-Kinney - Dig Me Out Tabs

Artists:  A B C D E F G H I J K L M N O P Q R S T U V W X Y Z # 

Dig Me Out Tabs

(ver. 2) Click to play this song!
Sleater-Kinney
 Rating:
4.1/5 (31 vote)

 Dig Me Out lessons Tabs too difficult? Try these video lessons and learn fast
 
                [Intro]

c#|-5-5-5-0-7-7-7-0--5-5-5-0-7-7-7--------------------------------------------|
G#|-6-6-6-0-5-5-5-0--6-6-6-0-5-5-5------8-8\6-6/8-8\6\3-3-3-3-3-3-------------|
 E|-------------------------------------7-7\5-5/7-7\5\2-2-2-2-2-2-------------|
 B|---------------------------------------------------------------------------|
F#|---------------------------------------------------------------------------|
C#|---------------------------------------------------------------------------| x1

c#|-5-5-5-0-7-7-7-0--5-5-5-0-7-7-7--------------------------------------------|
G#|-6-6-6-0-5-5-5-0--6-6-6-0-5-5-5------8-8\6-6/8-8\6\3-3-3-3-3-3-3-3-3-------|
 E|-------------------------------------7-7\5-5/7-7\5\2-2-2-2-2-2-2-2-2-------|
 B|---------------------------------------------------------------------------|
F#|---------------------------------------------------------------------------|
C#|---------------------------------------------------------------------------| x2


[Verse 1]

Dig me out...

c#|-5-5-5-0-7-7-7-0--5-5-5-0-7-7-7--------------------------------------------|
G#|-6-6-6-0-5-5-5-0--6-6-6-0-5-5-5------8-8\6-6/8-8\6\3-3-3-3-3-3-3-3-3-------|
 E|-------------------------------------7-7\5-5/7-7\5\2-2-2-2-2-2-2-2-2-------|
 B|---------------------------------------------------------------------------|
F#|---------------------------------------------------------------------------|
C#|---------------------------------------------------------------------------| x2


[Chorus]

You got me...

c#|---------------------------------------------------------------------------|
G#|-3/7-7-7-7-7-7-7-----7-------7----------------------7-7--------------------|
 E|----------------6-7p6---6-7p6---7/9-9-9-9-9-9-9\7-7------6-6-7-7-----------|
 B|---------------------------------------------------------------------------|
F#|---------------------------------------------------------------------------|
C#|---------------------------------------------------------------------------| x2


[Verse 2]

What do you want...

c#|-5-5-5-7-7-7-7-0--5-5-5-7-7-7-7--------------------------------------------|
G#|-6-6-6-0-5-5-5-0--6-6-6-0-5-5-5------8-8\6-6/8-8\6\3-3-3-3-3-3-3-3-3-------|
 E|-------------------------------------7-7\5-5/7-7\5\2-2-2-2-2-2-2-2-2-------|
 B|---------------------------------------------------------------------------|
F#|---------------------------------------------------------------------------|
C#|---------------------------------------------------------------------------| x2


[Chorus]

Dig me out...

c#|-5-5-5-0-7-7-7-0--5-5-5-0-7-7-7--------------------------------------------|
G#|-6-6-6-0-5-5-5-0--6-6-6-0-5-5-5------8-8\6-6/8-8\6-6\3-3-3-3-3-3-3-3-3-----|
 E|-------------------------------------7-7\5-5/7-7\5-5\2-2-2-2-2-2-2-2-2-----|
 B|---------------------------------------------------------------------------|
F#|---------------------------------------------------------------------------|
C#|---------------------------------------------------------------------------| x2



[Bridge]

I wear your rings...

c#|-5-----5-----5------5-----------------5-----5-----5------------------------|
G#|---6-----6-----6------6-----------------6-----6-----6----------------------|
 E|-----7-----7-----7------6--7--6--0--------7-----7-----7\3-4-3\2-0----------|
 B|---------------------------------------------------------------------------|
F#|---------------------------------------------------------------------------|
C#|---------------------------------------------------------------------------|

c#|-5-----5-----5------5----------------5-----5-----5-------------------------|
G#|---6-----6-----6------6----------------6-----6-----6-----------------------|
 E|-----7-----7-----7------6--7--6--0-------7-----7-----7\3-4-3/5-7-----------|
 B|---------------------------------------------------------------------------|
F#|---------------------------------------------------------------------------|
C#|---------------------------------------------------------------------------|

You got me...

c#|---------------------------------------------------------------------------|
G#|--7-7-7-7-7-7-7------7-------7----------------------7-7--------------------|
 E|----------------6-7p6---6-7p6---7/9-9-9-9-9-9-9\7-7------6-6-7-7-----------|
 B|---------------------------------------------------------------------------|
F#|---------------------------------------------------------------------------|
C#|---------------------------------------------------------------------------| x2

I wear...

c#|-5-----5-----5------5-----------------5-----5-----5-----5------------------|
G#|---6-----6-----6------6-----------------6-----6-----6-----6----------------|
 E|-----7-----7-----7------6--7--6--0--------7-----7-----7-----7\3-4-3\2-0----|
 B|---------------------------------------------------------------------------|
F#|---------------------------------------------------------------------------|
C#|---------------------------------------------------------------------------| x2

Oh god...

c#|-5-----5-----5------5---------------5-----5-----5--------------------------|
G#|---6-----6-----6------6---------------6-----6-----6------------------------|
 E|-----7-----7-----7------6--7--6--0------7-----7-----7\3-4-3/5-7------------|
 B|---------------------------------------------------------------------------|
F#|---------------------------------------------------------------------------|
C#|---------------------------------------------------------------------------| x2


[Chorus]

Dig me out...

c#|-5-5-5-0-7-7-7-0--5-5-5-0-7-7-7--------------------------------------------|
G#|-6-6-6-0-5-5-5-0--6-6-6-0-5-5-5------8-8\6-6/8-8\6-6\3-3-3-3-3-3-3-3-3-----|
 E|-------------------------------------7-7\5-5/7-7\5-5\2-2-2-2-2-2-2-2-2-----|
 B|---------------------------------------------------------------------------|
F#|---------------------------------------------------------------------------|
C#|---------------------------------------------------------------------------| x2


[Outro]

c#|-5-5-5-0-7-7-7-0--5-5-5-0-7-7-7--------------------------------------------|
G#|-6-6-6-0-5-5-5-0--6-6-6-0-5-5-5------8-8\6-6/8-8\6-6\3-3-3-3-3-3-3-3-3-----|
 E|-------------------------------------7-7\5-5/7-7\5-5\2-2-2-2-2-2-2-2-2-----|
 B|---------------------------------------------------------------------------|
F#|---------------------------------------------------------------------------|
C#|---------------------------------------------------------------------------| x2

c#|-5-5-5-0-7-7-7-0--5-5-5-0-7-7-7--------------------------------------------|
G#|-6-6-6-0-5-5-5-0--6-6-6-0-5-5-5------8-8\6-6/8-8\6-6\3-3-3-3-3-3-----------|
 E|-------------------------------------7-7\5-5/7-7\5-5\2-2-2-2-2-2-----------|
 B|---------------------------------------------------------------------------|
F#|---------------------------------------------------------------------------|
C#|---------------------------------------------------------------------------| x1

            
Submit corrections


        Dig Me Out lessons Hard to play? Try these video lessons and learn fast Dig Me Out lessons
        
↑ Back to top | Tablatures and chords for acoustic guitar and electric guitar, ukulele, drums are parodies/interpretations of the original songs. You may use it for private study, scholarship, research or language learning purposes only