» » »

Slash - Stone Blind Tabs

Artists:  A B C D E F G H I J K L M N O P Q R S T U V W X Y Z # 

Stone Blind Tabs

(ver. 1) Click to play this song!
Slash
 Rating:
4/5 (4 votes)

 Stone Blind  lessons Tabs too difficult? Try these video lessons and learn fast
 
                Tuning:

Intro:
eb|---------------------------------------------|
Bb|-----2---1-------------1---0-----------------|
Gb|---2---2---2---------2---2---2---------------|
Db|-------------------0-------------------------|
Ab|-0-----------3b3.5---------------------------|
Eb|------------------------------3b.5-----------|

eb|-----------------------------------------------|
Bb|-----------------------------------------------|
Gb|-----------------------------------------------|
Db|-2-2-2-2-2-2-2-2-2-2-2-5-----------------------|
Ab|-0-0-0-0-0-0-0-0-0-0-0-3-2-5-------------------|
Eb|-------------------------0-3-------------------|
    PM--------------------------------------------|

The bottom part fades in, don't play them one after the other! Stick a bit of chorus on 
the arpeggio.

Riff/Chorus:
eb|----------------------------------------------|
Bb|-----------------3----------------------------|
Gb|-----------------2----------------------------|
Db|-2---------------0----------------------------|
Ab|-0-0-4p0-3p0-------0-3p0-2--------------------| x3
Eb|-------------2-3-----------2-3-4--------------|

eb|----------------------------------------------|
Bb|-----------------3----------------------------|
Gb|-----------------2----------------------------|
Db|-2---------------0----------------------------|
Ab|-0-0-4p0-3p0-------0-3p0-2---0-1--------------| x1
Eb|-------------2-3-----------3------------------|

Verse:
eb|---------------------------------------------------------------------------|
Bb|---------------------------------------------------------------------------|
Gb|----------------------------4----------------4-x-x-4-x-4-4-----------------|
Db|-4~-4-x-4-2-x-4-x-4-4-x-4-4-x----------------2-2-2-2-2-2-2-----------------|
Ab|-2~-2-2-2-0-2-2-2-0-2-2-2-0-5-x-x-5-x-5-5----------------------------------| x4
Eb|----------------------------3-3-3-3-3-3-3-0--------------------------------|

The power chords with the x in them are heavily palm muted, which is a little difficult
to notate here. Give the track a good listen and see if you can pick it up, but if this
tab isn't clear enough I'll try and do a beat-by-beat demonstration here. On the third 
repetition, slide out from the final E5 chord, as the guitar briefly stops at this point,
and come back in half-way through the B5 rhythm.

Bridge:
eb|---------------------------------------------------------------------------|
Bb|---------------------------------------------------------------------------|
Gb|---------------------------------------------------------------------------|
Db|-7-7-x-7-x-x-7-x-x-7-7/9-10-11-x-x-11-x-x-5-5-5-5-5\-----------------------|
Ab|-5-5-5-5-5-5-5-5-5-5-5/7-8--9--9-9-9--9-9-3-3-3-0-3\-----------------------| x1
Eb|---------------------------------------------------------------------------|

The second time around, instead of sliding out, use the last C5 chord as the same one in
the faded part of the intro - use a E5 and G5 to get back into the chorus, instead of
just sliding out.

Pre-Solo:
eb|-----------------------------------------------|
Bb|-3--3---3---3---3------------------------------|
Gb|-2----0-------0-0-0---0------------------------|
Db|-0--------4-----0---3---3p2p0------------------|
Ab|----------------0-------------3----------------|
Eb|----------------3------------------------------|

eb|---------------------------------------------------------------------------|
Bb|---------------------------------------------------------------------------|
Gb|---------------------------------------------------------------------------|
Db|-------------------------------------2-2-2-2-2-3-4-5-5-5-5-5-5-5-----------|
Ab|-5-5-5-5-5-3-----3-3---5-5-----5-5---0-0-0-0-0-1-2-3-3-3-3-3-3-3-----------|
Eb|-3-3-3-3-3-1-1-1-1-1-1-3-3-3-3-3-3-3---------------------------------------|
PM    ----|     --|           --|         ----|         ----------|

Both parts fade in. The arpeggio uses the D chord from the preceding chorus, and then
the power chord section emerges from under the G chord of said arpeggio. Palm mute where appropriate.


Solo:

Is coming! The rhythm alternates between G and D for the first half, drops to a chugged
E5 chord, then returns to G and D.

Outro:

eb|----------------------------------------------|
Bb|-----------------3~---------------------------|
Gb|-----------------2~---------------------------|
Db|-2---------------0~-5-----2~-2\---------------|
Ab|-0-0-4p0-3p0--------3-----0~-0\---------------| x1
Eb|-------------2-3------0-3---------------------|

The outro is the same as the chorus/riff before it, only ending on this slight variation.
            
Submit corrections


        Stone Blind  lessons Hard to play? Try these video lessons and learn fast Stone Blind  lessons
        
↑ Back to top | Tablatures and chords for acoustic guitar and electric guitar, ukulele, drums are parodies/interpretations of the original songs. You may use it for private study, scholarship, research or language learning purposes only