» » »

Slash - Shadow Life Tabs

Artists:  A B C D E F G H I J K L M N O P Q R S T U V W X Y Z # 

Shadow Life Tabs

(ver. 1) Click to play this song!
Slash
 Rating:
4.3/5 (19 votes)

 Shadow Life  lessons Tabs too difficult? Try these video lessons and learn fast
 
                [Intro]

clean guitar
e|-----------------------------------------------------------------------------|
B|---------5-4--------------5-4---------------5-4------------------------------|
G|-----6-------6--------4-------4---------6----------------5-------5-----------|
D|---6---6------------6---6-------6-----6---6------------6---6---6---6---------|  
A|-4-----------------------------------------------------------3---------------|
E|---------------0--------------------5-----------5-4--------------------------|(x2)

Then you stop before the G# part and do this with distortion
e|----------|
B|----------|
G|-----4----|
D|-2---4----|
A|-2---2----|
E|-0--------|


[Main Riff]

e|--------------------------------------------------------------0----|
B|--------------------------------------------------------------0----|
G|-------------------------------------------------------------------|
D|-------------------------------------------------------------------|
A|-4-3---2----------4-3---2----------4-3---2----------4-3---2--------|
E|-----4----2-2h3h4-----2----2-2h3h4-----4----2-2h3h4-----4--2-------|

e|---------------------------------------------------------------------|
B|---------------------------------------------------------------------|
G|------------------------------------------------------------------6/-|
D|-----------------------------------------------------------4--2---6/-|
A|-4-3---2----------4-3---2----------4-3---2--------------4--4--2---4/-|
E|-----4----2-2h3h4-----2----2-2h3h4-----4----2-2h3h4-4-3----2--0------|            
Submit corrections


        Shadow Life  lessons Hard to play? Try these video lessons and learn fast Shadow Life  lessons
        
↑ Back to top | Tablatures and chords for acoustic guitar and electric guitar, ukulele, drums are parodies/interpretations of the original songs. You may use it for private study, scholarship, research or language learning purposes only